Oops, an error
Loading. Please wait.

Steven Universe - Here Comes A Thought tab

version 2
version 2

Whole song

  • The guitar matches the vocals in the song.
64 views 12 this week
no commentswrite comment
1 2 3 4 5
3 more votes to show rating
add to favorites
×
Save as Personal and add changes to this tab that will be seen only by you. Learn more ›
×
You can save this tab as Personal to edit and correct it or add notes. All changes will be seen only by you. Learn more »
launch autoscroll
font size
0
reset
how to read this tab
guitar tuner
edit
Autoscroll
slow
fast
+/-
esc
set tempo
stop
Tab created by Tron544 on YouTube. https://youtu.be/5D8GFDJeHoI

[Intro]
e|---------------------------------------------------|
B|--------------8------------------------8-----------|
G|--9--9--9--9-----9--7--7---9--9--9--9-----9--7--7--|
D|---------------------------------------------------|  (x2)
A|---------------------------------------------------|
E|---------------------------------------------------|

[Verse 1]
e|------------------------------------|
B|------------------------------------|
G|--7-----------------7---------------|
D|------10--9--7---------10--9--7--9--|
A|------------------------------------|
E|------------------------------------|

e|-------------------------------------|
B|-------------------------------------|
G|--9---7-------------9--7-------------|
D|---------10--9------------10--9--10--|
A|-------------------------------------|
E|-------------------------------------|

e|----------------------------------------|
B|----------------------------------------|
G|--7---------------------7---------------|
D|------10--9--7-------------10--9--7--9--|
A|--------------------10------------------|
E|----------------------------------------|

e|--------------------------------------------|
B|--------------------------------------------|
G|--9---7----------------9--7-----------------|
D|---------10--9---------------10--9--10------|
A|------------------10--------------------10--|
E|--------------------------------------------|

e|----------------7----------------7--7------10--8--7------7-h-8-------7--8--7------|
B|--8------8--10-----8------8--10----------------------10----------10-----------10--|
G|----------------------------------------------------------------------------------|
D|----------------------------------------------------------------------------------|
A|----------------------------------------------------------------------------------|
E|----------------------------------------------------------------------------------|

e|--------8-------------------------8---------------------|
B|------------10------------------------10----------------|
G|--10-------------10---9----7---------------10---9----7--|
D|--------------------------------------------------------|
A|--------------------------------------------------------|
E|--------------------------------------------------------|

[Pre-Chorus]
e|------------------------------------------------------------------------------|
B|--------------8----------------------------8------------------------8---------|
G|--9--9--9--9-----9--7--7-------9--9--9--9-----9--7--7---9--9--9--9-----7--7---|
D|------------------------------------------------------------------------------|
A|--------------------------10--------------------------------------------------|
E|------------------------------------------------------------------------------|

e|--------------------------8--8--|
B|--------------------------------|
G|----9--7--9--7--9--7------------|
D|---------------------9----------|
A|10------------------------------|
E|--------------------------------|

[Chorus]
e|--8---7--7--7-------------------------------------8--8--8---7--7--7-------------------------|
B|----------------10--10--10---8--8--8----------------------------------10--10--10---8--8--8--|
G|---------------------------------------9--7-------------------------------------------------|
D|---------------------------------------------10---------------------------------------------|
A|--------------------------------------------------------------------------------------------|
E|--------------------------------------------------------------------------------------------|

e|------------8--8--|
B|------------------|
G|-9--7-------------|
D|-9--7-------------|
A|-------10---------|
E|------------------|

e|--8---7--7--7------------------------------------------------------------------|
B|----------------10--10--10---8--8--8-----------------8--------8--------8-------|
G|---------------------------------------9--7------------------------------------|
D|---------------------------------------------10----------10-------10-------10--|
A|-------------------------------------------------------------------------------|
E|-------------------------------------------------------------------------------|

[Verse 2]
e|-------------------------------------------------------------------------|
B|-------------------------------------------------------------------------|
G|--7-----------------7-----------------9---7-------------9--7-------------|
D|------10--9--7---------10--9--7--9-----------10--9------------10--9--10--|
A|-------------------------------------------------------------------------|
E|-------------------------------------------------------------------------|

e|------------------------------------------------------------------------------------|
B|------------------------------------------------------------------------------------|
G|--7---------------------7-----------------9---7----------------9--7-----------------|
D|------10--9--7-------------10--9--7--9-----------10--9---------------10--9--10------|
A|--------------------10------------------------------------10--------------------10--|
E|------------------------------------------------------------------------------------|

e|----------------7----------------7--7------10--8--7------7-h-8-------7--8--7------|
B|--8------8--10-----8------8--10----------------------10----------10-----------10--|
G|----------------------------------------------------------------------------------|
D|----------------------------------------------------------------------------------|
A|----------------------------------------------------------------------------------|
E|----------------------------------------------------------------------------------|

e|--------8-------------------------8---------------------|
B|------------10------------------------10----------------|
G|--10-------------10---9----7---------------10---9----7--|
D|--------------------------------------------------------|
A|--------------------------------------------------------|
E|--------------------------------------------------------|

[Pre-Chorus]
e|------------------------------------------------------------------------------------------------------|
B|--------------8----------------------------8------------------------8---------------------------------|
G|--9--9--9--9-----9--7--7-------9--9--9--9-----9--7--7---9--9--9--9-----7--7-------9--7--9--7--9--7----|
D|----------------------------------------------------------------------------------------------------9-|
A|--------------------------10-------------------------------------------------10-----------------------|
E|------------------------------------------------------------------------------------------------------|

e|--8--8--|
B|--------|
G|--------|
D|--------|
A|--------|
E|--------|

[Chorus]
e|--8---7--7--7-------------------------------------8--8--8---7--7--7-----------------------------------|
B|----------------10--10--10---8--8--8----------------------------------10--10--10---8--8--8------------|
G|---------------------------------------9--7--------------------------------------------------9--7-----|
D|---------------------------------------------10----------------------------------------------------10-|
A|------------------------------------------------------------------------------------------------------|
E|------------------------------------------------------------------------------------------------------|

e|--8--8--|
B|--------|
G|--------|
D|--------|
A|--------|
E|--------|

e|--8---7--7--7-------------------------------------------------------------------------------------|
B|----------------10--10--10---8--8--8-----------------8--------8--------8-----------------------8--|
G|---------------------------------------9--7----------------------------------------------7--9-----|
D|---------------------------------------------10----------10-------10-------10----10--10-----------|
A|--------------------------------------------------------------------------------------------------|
E|--------------------------------------------------------------------------------------------------|

e|--8---7--7--7-------------------------------------8--8--8---7--7--7-----------------------------------|
B|----------------10--10--10---8--8--8----------------------------------10--10--10---8--8--8------------|
G|---------------------------------------9--7--------------------------------------------------9--7-----|
D|---------------------------------------------10----------------------------------------------------10-|
A|------------------------------------------------------------------------------------------------------|
E|------------------------------------------------------------------------------------------------------|

e|--8--8--|
B|--------|
G|--------|
D|--------|
A|--------|
E|--------|

e|--8---7--7--7------------------------------------------------------------------|
B|----------------10--10--10---8--8--8-----------------8--------8--------8-------|
G|---------------------------------------9--7------------------------------------|
D|---------------------------------------------10----------10-------10-------10--|
A|-------------------------------------------------------------------------------|
E|-------------------------------------------------------------------------------|

[Outro]
e|---------------------------------------------------|
B|--------------8------------------------8-----------|
G|--9--9--9--9-----9--7--7---9--9--9--9-----9--7--7--|
D|---------------------------------------------------|  (x2)
A|---------------------------------------------------|
E|---------------------------------------------------|

            
            
Suggest correction
Creating personal tab
Creating personal tab
You can edit any tab online and save it as your Personal.

You can edit, replace or remove any tab part or add personal notes – all changes will be seen only by you.

Personal tabs can be accessed anytime from any device, even offline.
Learn more »
Give kudos to tab author, rate the tab!
1 2 3 4 5
comments
print report bad tab
guest
You may want to rate the tab now too:
select rating
Wanna post a correction for this tab? Suggest correction