Oops, an error
Loading. Please wait.

Steven Universe - Lapis Lazuli power

version 2
version 2

Whole song

Interactive

1,766 views 1 this week
2 commentsread comments
1 2 3 4 5
1 last vote to show rating
add to favorites
guitar tuner
Autoscroll
slow
fast
+/-
esc
set tempo
stop
"Steven Universe - Lapis Lazuli"
demo version
Play now

or get full version for Free

×
Get full version now!
Learn and play this song
in Tab Pro
Try for free

or get $10 off Welcome Bonus

Get welcome bonus
Get access to Tab Pro version of “Steven Universe - Lapis Lazuli”!
Tab Pro is a premium guitar tab service, available on PC, Mac, iOS and Android
TRY FOR FREE
Your download will start in 7 seconds
×
Like this song? We have more! Follow us on Facebook for daily tips, lessons and other guitar-related content.
To download “Steven Universe - Lapis Lazuli” Power tab click button below
Please note that you must have Power Tab software installed on your
computer in order to view this file.
Suggest correction
Give kudos to tab author, rate the tab!
1 2 3 4 5
comments
report bad tab
2 comments total.
+1 reply
jamesjohnson21 10 Jun 15, 2016 03:36 PM

Awesome tab! Love this song! Thanks for doing this, but I think these amendments should be made:

instead of...
e|------------|-------0-1-0------|
B|------------|-------------1----|
G|-----2------|---------------0--|
D|---2--------|---2--------------|
A|-0------0-2-|-3---3------------|
E|------------|------------------|

it should be...
e|------------|-------0h1p0------|
B|-----1------|---1---------1----|
G|------------|---------------0--|
D|---2--------|-----2------------|
A|-0------0-2-|-3----------------|
E|------------|------------------|

and later into the song, instead of...

e|--------0-------|
B|----------------|
G|-----0----0-----|
D|---2--------2---|
A|-3------------3-|
E|----------------|

it should be...

e|--------0-------|
B|-----3----3-----|
G|---5------------|
D|----------------|
A|-3----------3/2-|
E|----------------|

and towards the very end, instead of...

e|--------0-------|
B|----------------|
G|-----0----0---0-|
D|---2--------2---|
A|-3--------------|
E|----------------|

it should be...

e|--------0-------|
B|-----3----3---3-|
G|---5--------5---|
D|----------------|
A|-3--------------|
E|----------------|

Everything else is good!! Thanks a lot! Cheers!

0 reply
nSword0 10 Aug 22, 2016 09:50 PM

@jamesjohnson21
Hey, tab author here. I listened to your corrections and I believe that you are, well, correct! Thanks!

guest