Oops, an error
Loading. Please wait.

Steven Universe - Love Like You bass

745 views 24 this week
no commentswrite comment
1 2 3 4 5
2 more votes to show rating
add to favorites
×
Save as Personal and add changes to this tab that will be seen only by you. Learn more ›
×
You can save this tab as Personal to edit and correct it or add notes. All changes will be seen only by you. Learn more »
launch autoscroll
font size
0
reset
guitar tuner
edit
Autoscroll
slow
fast
+/-
esc
set tempo
stop
Author
Difficulty
Steven Universe - Love Like You (Ending Theme)

Tabbed by: Ash
email: burdickash@gmail.com

Tuning: Standard
Time Signature: 3/4

NOTE:
I've tabbed both the string bass part for the FULL song, and the main vocal melody; enjoy!


--BASS--

"If I could begin to be, half of what you think of me"
G|-------------------|-------------------|
D|-1--------3--------|-5--------6--------|
A|-------------------|-------------------|
E|-------------------|-------------------|

"I could do about anything, I could even learn how to love..."
G|----------5--------|---------(3)--3--3--|
D|-5--------------1--|-3------------------|
A|-------------------|--------------------|
E|-------------------|--------------------|

"When I see the way you act, wondering when I'm coming back"
G|-------------------|--------------------|
D|-1------1--3-------|-5------5--6--------|
A|-------------------|--------------------|
E|-------------------|--------------------|

"I could do about anything, I could even learn how to love..."
G|------------5---------|-------3--3--4--|
D|-(5)---------------1--|-3--------------|
A|----------------------|----------------|
E|----------------------|----------------|

"Like you..."
G|-5------------------|-----------------------|
D|-----------5--------|-----------5----3-1----|
A|--------3-----------|-3------3------------3-|
E|--------------------|-----------------------|

G|--------------------|-------------------|
D|--------------------|-------------------|
A|-----------3--------|-------------------|
E|-1------1-----------|-3--------3--------|

"I always thought I might be bad now I'm sure that it's true"
G|-------------------|---------------------|
D|-------------------|---------------------|
A|-------------------|-----------3------3--|
E|-4--------4--------|-3------3------------|

"Cause I think you're so good and I am nothing like you"
G|---------------------|----------------------|
D|---------------------|-------0--1--1--------|
A|---------------------|----1-----------------|
E|-1------1--2------2--|-3--------------------|

"Look at you go, I just adore you, I wish that I knew"
G|-------------------|--------------------|
D|-------------------|-----------3--------|
A|-------------------|-3------3-----------|
E|-4--------4--------|--------------------|

"What makes you think that I'm so special" 
G|--------------------|------------------|
D|--------------------|------------------|
A|-----------------3--|-5----------------|
E|-4------------4-----|------------------|

"If I could begin to do something that does right by you"
G|-------------------|-------------------|
D|-1--------3--------|-5--------6--------|
A|-------------------|-------------------|
E|-------------------|-------------------|

"I would do about anything, I would even learn how to love..."
G|----------5------|---------3----------|
D|-5---------------|-3------------------|
A|-----------------|--------------------| (slow down during this)
E|-----------------|--------------------|

"When I see the way you look, shaken by how long it took"
G|-------------------|---------------------|
D|-1------1--3-------|-5------8--6------6--|
A|-------------------|---------------------|
E|-------------------|---------------------|

"I would do about anything, I would even learn how to love..."
G|----------5---------|----------3--3--3--|
D|-5---------------1--|-3-----------------|
A|--------------------|-------------------|
E|--------------------|-------------------|

"Like you"
G|---------------------|------------------|
D|-6---------6---------|-6----------------|
A|----------------6----|------------------|
E|--------4------------|------------------|

"Love like you"
G|--------3-----------|-------------------|
D|-5---------5--------|-5--------5--------|
A|--------------------|-------------------|
E|--------------------|-------------------|

"Love me like you"
G|---------------------|-------------------|
D|-4--------6----4-----|-4--------4--------|
A|------------------4--|-------------------|
E|---------------------|-------------------|

G|--------------------|
D|--------------------|
A|-2------------------|
E|--------------------|


--MELODY--

"If I could begin to be half of what you think of me"
G|-------------------------------|---------------------------------|
D|----------------------13-13----|------12--------------15-15---15-|
A|-10---13-10----10-11-----------|-13------13----13-14-------------|
E|-------------------------------|---------------------------------|

"I could do about anything, I could even learn how to love..."
G|-12----------------------------------------|-------------12--------|
D|-----15-13--12-15--13----------------------|-----------------------|
A|----------------------15----15-16-15-------|-----12--15------------|
E|-------------------------------------15----|-13--------------------|

"When I see the way you act, wondering when I'm coming back"
G|-------------------------------|---------------------------------|
D|----------------------13-13----|------12--------------15-15---15-|
A|-10---13-10----10-11-----------|-13------13----13-14-------------|
E|-------------------------------|---------------------------------|

"I could do about anything, I could even learn how to love..."
G|-12----------------------------------------|-------------12--------|
D|-----15-13--12-15--13----------------------|-----------------------|
A|----------------------15----15-16-15-------|-----12--15------------|
E|-------------------------------------15----|-13--------------------|

"Like you"
G|---------------|
D|-13--13--------|
A|---------------|
E|---------------|

Happy playing!

************************************

| x   Dead note
| g   Grace note
| (n) Ghost note
| h   Hammer-on
| p   Pull-off
| r   Release
| >   Accented note
| t   Tapping
| b   Bend
| br  Bend release
| pb  Pre-bend
| pbr Pre-bend release
| /   Slide up
| \   Slide down
| ~   Vibrato
| s   Slap
| P   Pop
| PM  Palm mute
| TR  Trill
| N   Tremolo

************************************

            
            
Suggest correction
Creating personal tab
Creating personal tab
You can edit any tab online and save it as your Personal.

You can edit, replace or remove any tab part or add personal notes – all changes will be seen only by you.

Personal tabs can be accessed anytime from any device, even offline.
Learn more »
Give kudos to tab author, rate the tab!
1 2 3 4 5
comments
print report bad tab
guest
You may want to rate the tab now too:
select rating
Wanna post a correction for this tab? Suggest correction