Oops, an error
Loading. Please wait.

Steven Universe - Love Like You tab

version 3
version 3

Whole song

1,018 views 12 this week
2 commentsread comments
1 2 3 4 5
2 more votes to show rating
add to favorites
×
Save as Personal and add changes to this tab that will be seen only by you. Learn more ›
×
You can save this tab as Personal to edit and correct it or add notes. All changes will be seen only by you. Learn more »
launch autoscroll
font size
0
reset
how to read this tab
guitar tuner
edit
Autoscroll
slow
fast
+/-
esc
set tempo
stop
Author
Difficulty
intermediate
"Love Like You" and "Nothing Like You" from Steven Universe,
 in the correct key, capo-free and easy to play!


Note: the chords for Verse 1 repeat in Verse 2 and then repeat again after that. I put all
the tabs in anyway just for convenience, but it repeats three times


Tuning: Eb A G D Bb Eb 



[Verse 1]

Eb|---------------|  |---------------|  |------2--------|  |------2--------|
Bb|---------------|  |------2--------|  |---------------|  |------1--------|
G |---------------|  |------1--------|  |---------------|  |------1--------|
D |------1--------|  |------3--------|  |---------------|  |------1--------|
A |------1--------|  |------x--------|  |------x--------|  |------x--------|
Eb|---------------|  |------x--------|  |------x--------|  |------x--------|

     If I could         Begin to be     Half of what you    Think of me

Eb|---------------|  |------1--------|  |------2--------|  |------2--------|
Bb|---------------|  |------2--------|  |------2--------|  |---------------|
G |---------------|  |---------------|  |------2--------|  |------1--------|
D |---------------|  |------2--------|  |------3--------|  |---------------|
A |------x--------|  |------3--------|  |---------------|  |------1--------|
Eb|------x--------|  |------x--------|  |------x--------|  |------x--------|

I could do about   Anything, I could even   Learn how to         Love



[Verse 2]

Eb|---------------|  |---------------|  |------2--------|  |------2--------|
Bb|---------------|  |------2--------|  |---------------|  |------1--------|
G |---------------|  |------1--------|  |---------------|  |------1--------|
D |------1--------|  |------3--------|  |---------------|  |------1--------|
A |------1--------|  |------x--------|  |------x--------|  |------x--------|
Eb|---------------|  |------x--------|  |------x--------|  |------x--------|

     When I see        The way you act   Wondering when I'm    Coming back

Eb|---------------|  |------1--------|  |------2--------|  |------2--------|
Bb|---------------|  |------2--------|  |------2--------|  |---------------|
G |---------------|  |---------------|  |------2--------|  |------1--------|
D |---------------|  |------2--------|  |------3--------|  |---------------|
A |------x--------|  |------3--------|  |---------------|  |------1--------|
Eb|------x--------|  |------x--------|  |------x--------|  |------x--------|

I could do about   Anything, I could even   Learn how to        Love like



Eb|---------------|  |---------------|  |------2--------|  |------2--------|
Bb|---------------|  |------2--------|  |---------------|  |------1--------|
G |---------------|  |------1--------|  |---------------|  |------1--------|
D |------1--------|  |------3--------|  |---------------|  |------1--------|
A |------1--------|  |------x--------|  |------x--------|  |------x--------|
Eb|---------------|  |------x--------|  |------x--------|  |------x--------|

     You... 

Eb|---------------|  |------1--------|  |------2--------|  |------2--------|
Bb|---------------|  |------2--------|  |------2--------|  |---------------|
G |---------------|  |---------------|  |------2--------|  |------1--------|
D |---------------|  |------2--------|  |------3--------|  |---------------|
A |------x--------|  |------3--------|  |---------------|  |------1--------|
Eb|------x--------|  |------x--------|  |------x--------|  |------x--------|

                                                                I always



Eb|---------------|  |------2--------|  |---------------|  |------4--------|
Bb|------2--------|  |------1--------|  |------2--------|  |---------------|
G |---------------|  |---------------|  |------1--------|  |---------------|
D |------1--------|  |---------------|  |------1--------|  |---------------|
A |------3--------|  |------2--------|  |------x--------|  |------x--------|
Eb|------x--------|  |------x--------|  |------x--------|  |------x--------|

Thought I might be     Bad, now I'm    Sure that's it's   True, 'cause,

Eb|---------------|  |------2--------|  |------2--------|  |---------------|
Bb|------2--------|  |------4--------|  |------4--------|  |------2--------|
G |------1--------|  |------3--------|  |------4--------|  |---------------|
D |------1--------|  |------3--------|  |------3--------|  |------1--------|
A |------x--------|  |------x--------|  |------x--------|  |------3--------|
Eb|------x--------|  |------x--------|  |------x--------|  |------x--------|

I think you're so   Good, and I'm      Nothing like       You


[Switch quickly to this next chord, but slowly strum the last one]

Eb|---------------|  |---------------|
Bb|------1--------|  |---------------|
G |------1--------|  |---------------|
D |------1--------|  |------1--------|
A |------x--------|  |------1--------|
Eb|------x--------|  |---------------|

            
            
Suggest correction
Creating personal tab
Creating personal tab
You can edit any tab online and save it as your Personal.

You can edit, replace or remove any tab part or add personal notes – all changes will be seen only by you.

Personal tabs can be accessed anytime from any device, even offline.
Learn more »
Give kudos to tab author, rate the tab!
1 2 3 4 5
comments
print report bad tab
2 comments total.
0 reply
lukeypookieee 193 Jul 05, 2016 02:29 PM

i've been waiting for someone to tab this. thanks.

guest
You may want to rate the tab now too:
select rating
Wanna post a correction for this tab? Suggest correction