Oops, an error
Loading. Please wait.

Steven Universe - Love Like You ukulele

version 3
version 3

Whole song

  • This is a first ukulele tab to correctly tab out the intro, The Ocean Returns.
  • Includes all the lyrics and the cords at the right time.
712 views 78 this week
no commentswrite comment
1 2 3 4 5
2 more votes to show rating
add to favorites
×
Save as Personal and add changes to this tab that will be seen only by you. Learn more ›
×
You can save this tab as Personal to edit and correct it or add notes. All changes will be seen only by you. Learn more »
launch autoscroll
font size
0
reset
transpose
0
reset
display chords
guitar tuner
edit
Autoscroll
slow
fast
+/-
esc
set tempo
stop
About this tab version
This is a first ukulele tab to correctly tab out the intro, The Ocean Returns. Was this info helpful? Yes No
Strumming Is this strumming pattern correct? Yes No
Verse 1 120 bpm
1
&
2
&
3
&
4
&
5
&
6
&
7
&
8
&
Listen
Artist: Rebecca Sugar
Song: Love Like You (The Ocean Returns)
Album: Steven Universe Soundtrack Volume 1

This is a ukulele tab for the beggining part 
of Love Like You from the "Steven Universe" episode
Ocean Gem.

A capo is needed to play in key, it is placed on 3rd fret,
but you could barre everything or just in a different key.
It still sounds good without a capo, so it isn't absoutely needed.

(Tab is relative to capo. Raise by 3 if you are playing without one.)

[Intro]
A|-------------------5----------5-----3-----0-10------5-----|
E|-----3-----8---------5------3-----3------------10---3-----|
C|---4-----5-----0h2--------4-----5-------0-----------2-----|
G|----------------------------------------------------2-----|          

[Verse 1]
A|-----------0-3-3-----2-------5-5---3h5-7-5-3-2--3-0---|
E|---0---0---1-------3---3---1--------------------------|
C|-----------2-------4----------------------------------|
G|-----0-----2---------------1--------------------------|                            

A|---1p0-------0--7--3--3-3-3-3-2--2-2-2---|
E|-------0---2----7--0--0-0-0-0-0--0-0-0---|
C|---------2------7--0--0-0-0-0-0--0-0-0---|
G|---------2------0--0--0-0-0-0-0--0-0-0---|   

[Verse 2]
A|------------0-3-3------2----------5-5---3h5-7-5-3-2--3-0---|
E|---0---0-0--1-----1--3---3-3--1------------------------0---|
C|---0--------2-----2--4----------0----------------------1---|
G|-----0------2-----2-----------1-------0----------------2---|
                    
A|---1p0-------0-7-3-3-3-3-2-2-2-2-2-2-2-2---|
E|-------2---2---7-0-0-0-0-0-0-0-0-0-0-0-0---|
C|---------2-----7-0-0-0-0-0-0-0-0-0-0-0-0---| (x4)
G|---------2-----0-0-0-0-0-0-0-0-0-0-0-0-0---|

You can just repeart Verse 2 as many times as you like because the rest of the song 
that I can tab out is just a repeat of Verse 2, even though I reccomend doing it 4 times.

(Check stumming patterns for the end of the verses.)

*****************************************

| h  hammer-on
| p  pull-off

*****************************************
Suggest correction
Creating personal tab
Creating personal tab
You can edit any tab online and save it as your Personal.

You can edit, replace or remove any tab part or add personal notes – all changes will be seen only by you.

Personal tabs can be accessed anytime from any device, even offline.
Learn more »
Give kudos to tab author, rate the tab!
1 2 3 4 5
comments
print report bad tab
guest
You may want to rate the tab now too:
select rating
Wanna post a correction for this tab? Suggest correction