Oops, an error
Loading. Please wait.

Steven Universe - Love Like You tab

version 4
version 4

Whole song

7,219 views 15 this week
5 commentsread comments
1 2 3 4 5
x 3
add to favorites
×
Save as Personal and add changes to this tab that will be seen only by you. Learn more ›
×
You can save this tab as Personal to edit and correct it or add notes. All changes will be seen only by you. Learn more »
launch autoscroll
font size
0
reset
how to read this tab
guitar tuner
edit
Autoscroll
slow
fast
+/-
esc
set tempo
stop
Song: Love Like You (Ending Theme From Steven Universe)
Artist: Rebecca Sugar 
Tuning: Half Step Down

Based off this extended version: https://www.youtube.com/watch?v=nbi0qmK8xVY

[Intro]

eb|----7--|-----12--|--7--|-------14-------12--|--7--|------------------------------|
Bb|--9----|--10-----|--7--|----12-------12-----|--7--|--12-------------------------|
Gb|-------|---------|--8--|--13-------14-------|--8--|--9--------------------------|
Db|-------|---------|--9--|--------------------|--9--|--9--------------------------|
Ab|-------|---------|--7--|--------------------|--7--|-----------------------------|
Eb|-------|---------|--x--|--------------------|--x--|-----------------------------|


[Part 1] 

eb|----------------0--0--|-----------------2--2--|--0--2--4--2--0-----0-------|
Bb|-----0----------------|----4--0-----1---------|----------------4-----2-----|
Gb|--1-----1-----2-------|-4---------------------|----------------------------|
Db|----------------------|-----------------------|----------------------------|
Ab|----------------------|-----------------------|----------------------------|
Eb|----------------------|-----------------------|----------------------------|

                                  [Ending 1]   [Ending 2]
                                  
eb|--------------|-----------|  |---0---2---|  |---4---2---|
Bb|--3--2--------|--------2--|  |---2---2---|  |---2---2---|
Gb|--------3-----|-----3-----|  |---4-------|  |---2---2---|   x4
Db|-----------4--|--4--------|  |-----------|  |-----------|
Ab|--------------|-----------|  |-----------|  |-----------|
Eb|--------------|-----------|  |-----------|  |-----------|


[Part 2]

eb|------------------|----------------11--12--|--/14--12-------------|----------|
Bb|--(9)--7--9--/10--|--9--10--12--14---------|-----------13---------|----------|
Gb|------------------|------------------------|--------------14--11--|--13------|
Db|------------------|------------------------|----------------------|----------|
Ab|------------------|------------------------|----------------------|----------|
Eb|------------------|------------------------|----------------------|----------|

eb|---------------|-------------------|----------------------------------------|
Bb|-----9--7------|-------------------|--9--12--7------------------------------|
Gb|--8--------10--|-7--6--------6--9--|----------------------------------------|
Db|---------------|------9--8---------|----------------------------------------|
Ab|---------------|-------------------|----------------------------------------|
Eb|---------------|-------------------|----------------------------------------|

[Part 1] 

eb|----------------0--0--|-----------------2--2--|--0--2--4--2--0-----0-------|
Bb|-----0----------------|----4--0-----1---------|----------------4-----2-----|
Gb|--1-----1-----2-------|-4---------------------|----------------------------|
Db|----------------------|-----------------------|----------------------------|
Ab|----------------------|-----------------------|----------------------------|
Eb|----------------------|-----------------------|----------------------------|

                                  [Ending 1]   [Ending 2]
                                  
eb|--------------|-----------|  |---0---2---|  |---4---2---|
Bb|--3--2--------|--------2--|  |---2---2---|  |---2---2---|
Gb|--------3-----|-----3-----|  |---4-------|  |---2---2---|   x3
Db|-----------4--|--4--------|  |-----------|  |-----------|
Ab|--------------|-----------|  |-----------|  |-----------|
Eb|--------------|-----------|  |-----------|  |-----------|


[Guitar Interlude]

eb|-----12--11-----|-------|---------------------|----------------------------|
Bb|--9----------9--|--12b--|--12brb--------------|----------/12--14--16-------|
Gb|----------------|-------|--------9--11--8--9--|--11--13--------------------|
Db|----------------|-------|---------------------|----------------------------|
Ab|----------------|-------|---------------------|----------------------------|
Eb|----------------|-------|---------------------|----------------------------|

[Percussion]

[Guitar Interlude]

eb|-----12--11-----|-------|---------------------|----------------------------|
Bb|--9----------9--|--12b--|--12brb--------------|----------/12--14--16-------|
Gb|----------------|-------|--------9--11--8--9--|--11--13--------------------|
Db|----------------|-------|---------------------|----------------------------|
Ab|----------------|-------|---------------------|----------------------------|
Eb|----------------|-------|---------------------|----------------------------|

[Part 1] 

eb|----------------0--0--|-----------------2--2--|--0--2--4--2--0-----0-------|
Bb|-----0----------------|----4--0-----1---------|----------------4-----2-----|
Gb|--1-----1-----2-------|-4---------------------|----------------------------|
Db|----------------------|-----------------------|----------------------------|
Ab|----------------------|-----------------------|----------------------------|
Eb|----------------------|-----------------------|----------------------------|

                                  
                                  
eb|--------------|------------|--4---2--|
Bb|--3--2--------|--------2---|--2---2--|
Gb|--------3-----|-----3------|--2---2--| 
Db|-----------4--|--4---------|---------|
Ab|--------------|------------|---------|
Eb|--------------|------------|---------|

[Guitar Interlude]

eb|-----12--11-----|-------|---------------------|-----------------|
Bb|--9----------9--|--12b--|--12brb--------------|-----------------|
Gb|----------------|-------|--------9--11--8--9--|--11--13---------|
Db|----------------|-------|---------------------|-----------------|
Ab|----------------|-------|---------------------|-----------------|
Eb|----------------|-------|---------------------|-----------------|

[Intro]

eb|----7--|-----12--|--7--|-------14-------12--|--7--|------------------------------|
Bb|--9----|--10-----|--7--|----12-------12-----|--7--|--12-------------------------|
Gb|-------|---------|--8--|--13-------14-------|--8--|--9--------------------------|
Db|-------|---------|--9--|--------------------|--9--|--9--------------------------|
Ab|-------|---------|--7--|--------------------|--7--|-----------------------------|
Eb|-------|---------|--x--|--------------------|--x--|-----------------------------|

[Part 1] 

eb|----------------0--0--|-----------------2--2--|--0--2--4--2--0-----0-------|
Bb|-----0----------------|----4--0-----1---------|----------------4-----2-----|
Gb|--1-----1-----2-------|-4---------------------|----------------------------|
Db|----------------------|-----------------------|----------------------------|
Ab|----------------------|-----------------------|----------------------------|
Eb|----------------------|-----------------------|----------------------------|

                                  [Ending 1]   [Ending 2]
                                  
eb|--------------|-----------|  |---0---2---|  |---4---2---|
Bb|--3--2--------|--------2--|  |---2---2---|  |---2---2---|
Gb|--------3-----|-----3-----|  |---4-------|  |---2---2---|   x8
Db|-----------4--|--4--------|  |-----------|  |-----------|
Ab|--------------|-----------|  |-----------|  |-----------|
Eb|--------------|-----------|  |-----------|  |-----------|

[Outro]

eb|------------------11----|
Bb|--------4--5--9---12----|
Gb|------------------------|
Db|-----6------------------|
Ab|--7---------------------|
Eb|------------------------|


************************************

| x   Dead note
| (n) Ghost note
| b   Bend
| br  Bend release
| /   Slide up

************************************

            
            
Suggest correction
Creating personal tab
Creating personal tab
You can edit any tab online and save it as your Personal.

You can edit, replace or remove any tab part or add personal notes – all changes will be seen only by you.

Personal tabs can be accessed anytime from any device, even offline.
Learn more »
Give kudos to tab author, rate the tab!
1 2 3 4 5
comments
print report bad tab
5 comments total. Showing first comments.
0 reply
vm4592 51 Sep 23, 2016 07:53 PM

This is amazing! I was looking for a tab for so long XD... Thank you! But if I may ask, is there any possible way for you to make a tutorial on this or whatnot?... Im able to learn it but idk... I feel I would be more confident with myself if I learned it properly from a video or something... If not then thats fine... But thank you so much either way! :)

0 reply
TheParanoidAndr 10 Jan 07, 2017 12:09 PM

This tab was great at the time but now since the song has gotten more lyrics and shit,can you please update the tab?

guest
You may want to rate the tab now too:
select rating
Wanna post a correction for this tab? Suggest correction