Oops, an error
Loading. Please wait.

Steven Universe - Love Like You tab

version 5
version 5

Whole song

2,788 views 282 this week
2 commentsread comments
1 2 3 4 5
x 8
add to favorites
×
Save as Personal and add changes to this tab that will be seen only by you. Learn more ›
×
You can save this tab as Personal to edit and correct it or add notes. All changes will be seen only by you. Learn more »
launch autoscroll
font size
0
reset
how to read this tab
guitar tuner
edit
Autoscroll
slow
fast
+/-
esc
set tempo
stop
[Verse 1]
e|------------------------|-----------------1--1--|-----1--3--1--------------|-----------------------3-|
B|-------------------4-4--|----3---------0--------|--4-----------4--3--4--1--|--1--2--1--------1--4----|
G|--0--3--0-----0--1------|-3-----3--3------------|--------------------------|-----------3--1----------|
D|------------------------|-----------------------|--------------------------|-------------------------|
A|------------------------|-----------------------|--------------------------|-------------------------|
E|------------------------|-----------------------|--------------------------|-------------------------|

e|-----------------------|-----------------1--1--|-----1--3--1--------------|-----------------------3--------|
B|------------------4-4--|----3---------0--------|--4-----------4--3--4--1--|--1--2--1--------1--4------4--3-|
G|-0--3--0-----0--1------|-3-----3--3------------|--------------------------|-----------3--1-----------------|
D|-----------------------|-----------------------|--------------------------|--------------------------------|
A|-----------------------|-----------------------|--------------------------|--------------------------------|
E|-----------------------|-----------------------|--------------------------|--------------------------------|

[Verse 2]
e|--3--1--------3--1---------|--1-----3--6--8--1--|-------------------|--------------------|
B|--------4--1-------4-----4-|-----4--------------|--4--------1--4--3-|--1--------1--4--3--|
G|----------------------4----|--------------------|-----3--2----------|-----3--1-----------|
D|---------------------------|--------------------|-------------------|--------------------|
A|---------------------------|--------------------|-------------------|--------------------|
E|---------------------------|--------------------|-------------------|--------------------|

[Verse 3]
e|--3--1--------3--1---------|-----0--3--5--7--5--|--3--1--0--1-----0-|--------|
B|--------4--1-------4-----4-|--1-----------------|--------------1----|--3-----|
G|----------------------4----|--------------------|-------------------|-----3--|
D|---------------------------|--------------------|-------------------|--------|
A|---------------------------|--------------------|-------------------|--------|
E|---------------------------|--------------------|-------------------|--------|

[Verse 4]
e|------------------------|-----------------1--1--|-----1--3--1--------------|-----------------------3-|
B|-------------------4-4--|----3---------0--------|--4-----------4--3--4--1--|--1--2--1--------1--4----|
G|--0--3--0-----0--1------|-3-----3--3------------|--------------------------|-----------3--1----------|
D|------------------------|-----------------------|--------------------------|-------------------------|
A|------------------------|-----------------------|--------------------------|-------------------------|
E|------------------------|-----------------------|--------------------------|-------------------------|

[Verse 5]
e|---------------------|----------------1-1--|---1-3--1-----------|--------------------3----1-------|
B|----------------4-4--|----3--------0-------|-4--------4--3-4-1--|-1--2-1----------1----------4----|
G|-0--3-0---0--1-------|-3----3---3----------|--------------------|--------------2------------------|
D|---------------------|---------------------|--------------------|---------4-3---------------------|
A|---------------------|---------------------|--------------------|---------------------------------|
E|---------------------|---------------------|--------------------|---------------------------------|

            
            
Suggest correction
Creating personal tab
Creating personal tab
You can edit any tab online and save it as your Personal.

You can edit, replace or remove any tab part or add personal notes – all changes will be seen only by you.

Personal tabs can be accessed anytime from any device, even offline.
Learn more »
comments
print report bad tab
2 comments total.
0 reply
vergaraeoj 10 Apr 20, 2017 04:43 AM

ITS PERFECT!!!!

guest
Wanna post a correction for this tab? Suggest correction