Oops, an error
Loading. Please wait.

Steven Universe - What Can I Do For You tab

version 3
version 3

Whole song

1,431 views 39 this week
1 commentread comment
1 2 3 4 5
2 more votes to show rating
add to favorites
×
Save as Personal and add changes to this tab that will be seen only by you. Learn more ›
×
You can save this tab as Personal to edit and correct it or add notes. All changes will be seen only by you. Learn more »
launch autoscroll
font size
0
reset
how to read this tab
guitar tuner
edit
Autoscroll
slow
fast
+/-
esc
set tempo
stop
-------------------------------------------------------------------------------
                             WHAT CAN I DO FOR YOU - Greg Universe
-------------------------------------------------------------------------------
Tabbed by: Me
I've had this tab for a while and i've just been hangin on to it cause i was too lazy to 
post it. Anyway this is my first tab and i did it by ear (also it was in half step 
down) so forgive me if some of it is wrong

* = Palm mute
~ = Let it ring

Intro:

e|-X---X---X---X---|
B|-X---X---X---X---|
G|-6---4---4---3---|
D|-6---4---4---3---|
A|-4---2---2---1---|
E|-4---2---2---1---|
   *   *
  x12  x6 x6

Chorus:

e|--x-x-x-x--x-x-x-x-----------------------------------------|
B|--x-x-x-x--x-x-x-x-------4-------4-----4-4-4-4-7-7-7-7-----|
G|--4-4-4-4--4-4-4-4-------4-------4-----4-4-4-4-7-7-7-7-----|
D|--5-5-5-5--5-5-5-5----4--4----4--4-----4-4-4-4-7-7-7-7-----|
A|--5-5-5-5--5-5-5-5---2-2-2---2-2-2-----2-2-2-2-5-5-5-5-----|
E|--3-3-3-3--3-3-3-3---------------------x-x-x-x-x-x-x-x-----|
    * * *    * * *     ***     ***       1 + 2 + 3 + 4 +

play that part twice but the second time end on:

x
4
4
4
2
x

Verse:

e|-----------------------------------------------------------|
B|------8------8-------7-------7-------7-7-7-7-10-10-10-10---|
G|------9------9-------7-------7-------7-7-7-7-10-10-10-10---|
D|---9--9---9--9----7--7----7--7-------7-7-7-7-10-10-10-10---|
A|--7-7-7--7-7-7---5-5-5---5-5-5-------5-5-5-5-8--8--8--8----|
E|------x------x-------x-------x-------x-x-x-x-x--x--x--x----|
    ***    ***     ***     ***         1 + 2 + 3  +  4  +

just like in the chorus play this twice but on the second time play:

e|--x---x---x---x---x------------------------------------------------------------------|
B|--7~--7---5~--5---4~-----------------------------------------------------------------|
G|--7~--7---5~--5---4~-----------------------------------------------------------------|
D|--7~--7---5~--5---4~-----------------------------------------------------------------|
A|--5~--5---3~--3---2~-----------------------------------------------------------------|
E|--x---x---x---x---x------------------------------------------------------------------|
        *       *
       x8      x8


Then you just play the chorus

            
            
Suggest correction
Creating personal tab
Creating personal tab
You can edit any tab online and save it as your Personal.

You can edit, replace or remove any tab part or add personal notes – all changes will be seen only by you.

Personal tabs can be accessed anytime from any device, even offline.
Learn more »
Give kudos to tab author, rate the tab!
1 2 3 4 5
comments
print report bad tab
1 comment total.
0 reply
tfseverson1 19 May 09, 2017 09:24 PM

This is a pretty good tab! A bit confusing and maybe off, but it feels a little better than the other one

guest
Wanna post a correction for this tab? Suggest correction