Oops, an error
Loading. Please wait.

Steven Universe Theme bass

version 1
version 1

Whole song

Interactive

1,402 views 15 this week
no commentswrite comment
1 2 3 4 5
1 last vote to show rating
add to favorites
×
Save as Personal and add changes to this tab that will be seen only by you. Learn more ›
×
You can save this tab as Personal to edit and correct it or add notes. All changes will be seen only by you. Learn more »
launch autoscroll
font size
0
reset
guitar tuner
edit
Autoscroll
slow
fast
+/-
esc
set tempo
stop
Steven Universe Theme Song

Tabbed by: Ash (XxThreeCheersxX)
email: burdickash@gmail.com

NOTE: There are TWO versions of this song here.

The first (I.) is the bassline to the extended theme song, which was originally shown at Comic Con.
The second (II.) is the vocal melody to the shortened theme song that airs at the start of the show.

Enjoy, and happy playing!

I. Extended Theme Song (bassline)

(Come in when Pearl starts singing)
G|------------------------------5~--------------------------------------5---------|
D|--3~-------2~---------------------------3~--------2~----------------------------|
A|--------------------3~--------------------------------------3~-------------3----|
E|--------------------------------------------------------------------------------|

"We were amazed to find your beauty and your worth"
G|--------------------------------------------------------------------------|
D|-3~--------2~-------------------7~-------------------5~-------------------|
A|--------------------5~-------5-----------5~--------5-----------3~---------|
E|--------------------------------------------------------------------------|

"And we will protect your earth"
G|-2~-----------------------------------|
D|--------------------------------------|
A|------------------5~--------5~--------|
E|--------------------------------------|

instrumental break
G|---------------------------------------------------------------------------------|
D|-5~--------5~--------------------------------------------------------------------|
A|---------------------6~--------6~--------5~--------5~--------5~--------5~--------|
E|---------------------------------------------------------------------------------|

G|------------------------------------------------------------------------------------|
D|-5~--------5~-----------------------------------------------------------------------|
A|---------------------6~--------6~--------3~--------3~--------5--5--5--5--5--5--5----|
E|------------------------------------------------------------------------------------|

Garnet: "I will fight for the place where I'm free"
G|----------------------------------------------------|
D|----------------------------------------------------|
A|-----------2---2---2--2~--------3~--------3~--------|
E|-3~-------------------------------------------------|

Pearl: "I will fight in the name of Rose Quartz"
G|-----------------------------------------|
D|-----------------------------------------|
A|-----------2~--------3~--------3~--------|
E|-3~--------------------------------------|

Amethyst: "I will fight for the world I was made in"
G|--------------------------------------------------|
D|--------------------------------------------------|
A|-----------5--2----2----3----3----3-5-5-5--5-5-5--|
E|-3------3-----------------------------------------|

Steven: "I will fight to be everything"
G|----------------------------------------|
D|----------------------------------------|
A|-----------2~-------3~--------5~--------|
E|-3~-------------------------------------|

Everyone: "The odds are against us"
G|-------------------------------2----7---------|
D|-5~--------4~--------2~------------------5----|
A|----------------------------------------------|
E|----------------------------------------------|

"We are the crystal Gems, and we'll always save the day
And if you think we can't, we'll always find a way"
G|------------------------------------5----5----5------------------5-----7-----8-----10--|
D|-5----5--7----(4)x-------------------------------5-------------------------------------|
A|--------------------------2~---/--------------------3----3----3-----5-----6-----8------|
E|---------------------------------------------------------------------------------------|

"That's the way the people of this world believe in...
Garnet, Amethyst and Pearl... and Steven!"
G|-------------------------------------------------------------------------------------------------------|
D|-5----5----5--5----5----5-----------------------2~-----------------------------------------------------|
A|---------------------------2----2----2--2----2--------------------3~-----------------------------------|
E|------------------------------------------------------------------------------------3~-----------------|




II. Vocal Melody

"We are the crystal gems, and we'll always save the day"
G|-------16----14--------14---------------------16----14------------------------|
D|-----------------17----------16---------------------------17----16--17--------|
A|-17-------------------------------------14------------------------------------|
E|------------------------------------------------------------------------------|

"And if you think we can't, we'll always find a way"
G|-------16----14------------------------------16----14-------------------------|
D|-------------------17----16--17--------------------------17----16--17---------|
A|-14----------------------------------17---------------------------------------|
E|------------------------------------------------------------------------------|

"That's why the people of this world.... believe in....
G|-------16----14------14----16----14--------------14--14----12--------|
D|-----------------17--------------------16----------------------------|
A|-17------------------------------------------------------------------|
E|---------------------------------------------------------------------|

"Garnet, Amethyst, and Pearl... and Steven!"
G|-16----14--------14----------------16--------14--14----12----|
D|-------------17--------17----12----~-------------------------|
A|-------------------------------------------------------------|
E|-------------------------------------------------------------|

************************************

| x   Dead note
| g   Grace note
| (n) Ghost note
| h   Hammer-on
| p   Pull-off
| r   Release
| >   Accented note
| t   Tapping
| b   Bend
| br  Bend release
| pb  Pre-bend
| pbr Pre-bend release
| /   Slide up
| \   Slide down
| ~   Vibrato
| s   Slap
| P   Pop
| PM  Palm mute
| TR  Trill
| N   Tremolo

************************************

            
            
Suggest correction
Creating personal tab
Creating personal tab
You can edit any tab online and save it as your Personal.

You can edit, replace or remove any tab part or add personal notes – all changes will be seen only by you.

Personal tabs can be accessed anytime from any device, even offline.
Learn more »
Give kudos to tab author, rate the tab!
1 2 3 4 5
comments
print report bad tab
guest
You may want to rate the tab now too:
select rating
Wanna post a correction for this tab? Suggest correction