Oops, an error
Loading. Please wait.

Swat Kats Theme Tab

version 2
version 2

Whole song

Interactive

6,350 views 6 this week
no commentswrite comment
1 2 3 4 5
excellent!
x 2
add to favorites
launch autoscroll
font size
0
reset
how to read this tab
guitar tuner
Tab Pro tools
  • play this tab
  • loop segment
  • change instrument
  • show fretboard
  • metronome
Autoscroll
slow
fast
+/-
esc
set tempo
stop
Contributor
-------------------------------------------------------------------------------
                             Swat Kats Theme
-------------------------------------------------------------------------------
Tabbed by: poekie1337
Email: poekie1337@hotmail.com

Tuning: standard


Rythm guitar 
e|---------------------------------------------------------------------------|
B|---------------------------------------------------------------------------|
G|-------------------------------------------6-6-6---------------------------|
D|----8-8--x-x-x---8-8--x-x-x---8-8--x-x-x---6-6-6--6-6-6--------------------|
A|----8-8--x-x-x---8-8--x-x-x---8-8--x-x-x---4-4-4--6-6-6--------------------|
E|----6-6--x-x-x---6-6--x-x-x---6-6--x-x-x----------4-4-4--------------------|

e|---------------------------------------------------------------------------|
B|---------------------------------------------------------------------------|
G|-------------------------------------------6-6-6--8-8-8--------------------|
D|----8-8--x-x-x---8-8--x-x-x---8-8--x-x-x---6-6-6--8-8-8--------------------|
A|----8-8--x-x-x---8-8--x-x-x---8-8--x-x-x---4-4-4--6-6-6--------------------|
E|----6-6--x-x-x---6-6--x-x-x---6-6--x-x-x-----------------------------------|2x


e|---------------------------------------------------------------------------|
B|---------------------------------------------------------------------------|
G|-------------------------------------------------8-8-8---------------------|
D|----10-10--x-x-x---10-10--x-x-x---10-10--x-x-x---8-8-8--8-8-8--------------|
A|----10-10--x-x-x---10-10--x-x-x---10-10--x-x-x---6-6-6--8-8-8--------------|
E|----8--8---x-x-x---8--8---x-x-x---8--8---x-x-x----------6-6-6--------------|

e|---------------------------------------------------------------------------|
B|---------------------------------------------------------------------------|
G|---------------------------------------------------------------------------|
D|----10-10--x-x-x---10-10--x-x-x---8-8-x-x-x---8-8-x-8-8-8------------------|
A|----10-10--x-x-x---10-10--x-x-x---8-8-x-x-x---8-8-x-8-8-8------------------|
E|----8--8---x-x-x---8--8---x-x-x---6-6-x-x-x---6-6-x-6-6-6------------------|

e|---------------------------------------------------------------------------|
B|---------------------------------------------------------------------------|
G|-----8-8--x-x-x---10-10--x-x-x---------------------------------------------|
D|-----8-8--x-x-x---10-10--x-x-x---10-10-x-x-x---10-10-x-10-10-10------------|
A|-----6-6--x-x-x---8--8---x-x-x---10-10-x-x-x---10-10-x-10-10-10------------|
E|---------------------------------8--8--x-x-x---8--8--x-8--8--8-------------|

e|---------------------------------------------------------------------------|
B|---------------------------------------------------------------------------|
G|-----8-8--x-x-x---10-10--x-x-x---------------------------------------------|
D|-----8-8--x-x-x---10-10--x-x-x---8-8-x-x-x---8-8-x-8-8-8-------------------|
A|-----6-6--x-x-x---8--8---x-x-x---8-8-x-x-x---8-8-x-8-8-8-------------------|
E|---------------------------------6-6-x-x-x---6-6-x-6-6-6-------------------|

e|---------------------------------------------------------------------------|
B|---------------------------------------------------------------------------|
G|-------------------------------------------------8-8-8---------------------|
D|----10-10--x-x-x---10-10--x-x-x---10-10--x-x-x---8-8-8--8-8-8--------------|
A|----10-10--x-x-x---10-10--x-x-x---10-10--x-x-x---6-6-6--8-8-8--------------|
E|----8--8---x-x-x---8--8---x-x-x---8--8---x-x-x----------6-6-6--------------|

e|---------------------------------------------------------------------------|
B|---------------------------------------------------------------------------|
G|---------------------------------------------------------------------------|
D|----10-10--x-x-x---10-10--x-x-x---10-10--x-x-x---8-8-----10-10\------------|
A|----10-10--x-x-x---10-10--x-x-x---10-10--x-x-x---8-8-----10-10\------------|
E|----8--8---x-x-x---8--8---x-x-x---8--8---x-x-x---6-6-----8--8\-------------|




Lead Guitar
            \/put volume on 5 and turn it up to 10 while bending
e|------------18b19~---19\---------------------------------------------------|
B|---------------------------------------------------------------------------|
G|---------------------------------------------------------------------------|
D|---------------------------------------------------------------------------|
A|---------------------------------------------------------------------------|
E|---------------------------------------------------------------------------|

e|------------------------------20-20~-----------------------------18-18~----|
B|----------20-20b22----20p18--------------------20-20b22-r-20p18------------|
G|---17-17--------------------------------17-17------------------------------|
D|---------------------------------------------------------------------------|
A|---------------------------------------------------------------------------|
E|---------------------------------------------------------------------------|

e|------17-18----17----17-----20--20~-------17-18----17----17----------------|
B|---20-------------20----18-------------20-------------20----18---20-20~----|
G|---------------------------------------------------------------------------|
D|---------------------------------------------------------------------------|
A|---------------------------------------------------------------------------|
E|---------------------------------------------------------------------------|

ee|------------------------------20-20~----------------------------18-18~-----20-20~\---|
B|----------20-20b22----20p18--------------------20-20b22---20p18-----------------------|
G|---17-17--------------------------------17-17-----------------------------------------|
D|--------------------------------------------------------------------------------------|
A|--------------------------------------------------------------------------------------|
E|--------------------------------------------------------------------------------------|


| /  slide up
| \  slide down
| h  hammer-on
| p  pull-off
| ~  vibrato
| +  harmonic
| x  Mute note
===============================================================================
comments
We did not receive enough feedback on this tab! Please rate:
print report bad tab
1 2 3 4 5
I want to post or [tab]
guest
You may want to rate the tab now too:
select rating
Please do not post tabs as comments. Select "correction" instead!