Oops, an error
Loading. Please wait.

Sword Art Online - Swordland Tab

154 views 9 this week
no commentswrite comment
1 2 3 4 5
3 more votes to show rating
add to favorites
launch autoscroll
font size
0
reset
how to read this tab
guitar tuner
Autoscroll
slow
fast
+/-
esc
set tempo
stop
Help us to improve Ultimate-Guitar.com Take our survey!
×
Author
Difficulty
novice
About this tab version
Easy to play with less neck changes. Was this info helpful? Yes No
Title: Swordland
Artist: Yuki Kajiura
Album: Sword Art Online OST
Author: Andreas Winter (@WolvDev)

YouTube link to song: https://youtu.be/ad5TszNUVYI

E|---------------------------------------------------------------------------------------------------|
B|---------8---7---------------8----7-------7---8---10--7---8---7------------------------------------|
G|-----9-------------------9------------9----------------------------9-------9---9---8---6---5---6---|
D|-9---------------9---9-------------------------------------------------9---------------------------|
A|---------------------------------------------------------------------------------------------------|
E|---------------------------------------------------------------------------------------------------|


E|---------------------------------------------------------------------------------------------------|
B|-------------------------10--9----7-------7---7---9---10--9---7--------10--9-------------------7---|
G|-8---6---6---8---9---9----------------9----------------------------9-----------------------6-------|
D|-------------------------------------------------------------------------------8---8---10----------|
A|---------------------------------------------------------------------------------------------------|
E|---------------------------------------------------------------------------------------------------|


E|-6------------------------------------6---7---9---7---6--------------------------------------------|
B|-----9---7-------------------7----9----------------------------------------------------------------|
G|-------------10--8---8---10-------------------------------5--------8---7---5---5-----------5---8---|
D|--------------------------------------------------------------5--------------------6---6-----------|
A|---------------------------------------------------------------------------------------------------|
E|---------------------------------------------------------------------------------------------------|


E|---------------------------------------------------------------------------------------------------|
B|-----------------6---6---8---6--------------------------------6----8---6---------------------------|
G|-8---7-------7--------------------8---7---8-------8---7---8----------------8---5---5---8---5---8---|
D|---------8------------------------------------6----------------------------------------------------|
A|---------------------------------------------------------------------------------------------------|
E|---------------------------------------------------------------------------------------------------|


E|---------------------------------------------------------------------------------------------------|
B|--------------------------------------------------8---7-------7----8---10--7---8---7---------------|
G|-8---7---5---7---5---4---4------------9-------9-----------9----------------------------9-------9---|
D|----------------------------------9-------9------------------------------------------------9-------|
A|---------------------------------------------------------------------------------------------------|
E|---------------------------------------------------------------------------------------------------|


E|---------------------------------------------------------------------------------------------------|
B|-5----------------------------------------10--9--------------------9---10--9-----------10--9-------|
G|-----8---6---8---5---6---6---8----9---9-----------11--9---11--11---------------11--9---------------|
D|-----------------------------------------------------------------------------------------------8---|
A|---------------------------------------------------------------------------------------------------|
E|---------------------------------------------------------------------------------------------------|


E|--------------------------------------------------------------9----7---6---------------------------|
B|-----------------11--9----------------------------9---11--12---------------------------6-----------|
G|-------------11----------11--10---8---8---10--11---------------------------5---7---8-------5---7---|
D|-8---10--11----------------------------------------------------------------------------------------|
A|---------------------------------------------------------------------------------------------------|
E|---------------------------------------------------------------------------------------------------|


E|---------------------------------------------------------------------------------------------------|
B|-----6---------------6--------------------------------6----------------6---------------6---8---6---|
G|-8-------5---7---8-------8---7----5---7---5---7---8-------5---7----8-------5---7---8---------------|
D|---------------------------------------------------------------------------------------------------|
A|---------------------------------------------------------------------------------------------------|
E|---------------------------------------------------------------------------------------------------|


E|---------------------------------|
B|-9---8---------------------------|
G|---------------------------------|
D|---------------------------------|
A|---------------------------------|
E|---------------------------------|
Suggest correction
Give kudos to tab author, rate the tab!
1 2 3 4 5
comments
print report bad tab
guest
You may want to rate the tab now too:
select rating
Wanna post a correction for this tab? Suggest correction