Oops, an error
Loading. Please wait.

Taboo Tattoo Ed - Egoistic Emotion tab

19 views 1 this week
no commentswrite comment
1 2 3 4 5
3 more votes to show rating
add to favorites
×
Save as Personal and add changes to this tab that will be seen only by you. Learn more ›
×
You can save this tab as Personal to edit and correct it or add notes. All changes will be seen only by you. Learn more »
launch autoscroll
font size
0
reset
how to read this tab
guitar tuner
edit
Autoscroll
slow
fast
+/-
esc
set tempo
stop
How to play video

https://www.youtube.com/watch?v=jonSoMU3EsY

[Chorus]                                
e|---------------------------------|
B|---------------------------------|
G|---2----5---5--3---3--5---5------|
D|-0-2-0--5-5-5--3-3-3--5-5-5------|
A|-0-0-0--3-5-3--1-3-1--3-5-3------|
D|-0---0----------------------7-8--|

[Verse]
     PM...............................................................................................
e|--------------------------------------------------------------------------------------------------------|
B|--------------------------------------------------------------------------------------------------------|
G|--------------------------------------------------------------------------------------------------------|
D|--------------------------------------------------------------------------------------------------------|
A|---5-5-5-5-5-5-5-5-5-5-5-5-5-5-5-5--3-3-3-3-3-3-3-3-3-3-3-3-3-3-3-3--2-2-2-2-2-2-2-2-2-2-2-2-2-2-2-2----|
D|--------------------------------------------------------------------------------------------------------|

                                              PM........    PM..........
e|-----------------------------------------------------------------------------------------------------------|
B|-----------------------------------------------------------------------------------------------------------|
G|-3-3-3-3-3-3--5-5-5-5-5-5--3-3-3------------------------------------------3-3-3-3-3-3--5-5-5-5-5-5--2-2-2--|
D|-3-3-3-3-3-3--5-5-5-5-5-5--3-3-3------------------------------------------3-3-3-3-3-3--5-5-5-5-5-5--2-2-2--|
A|-1-1-1-1-1-1--3-3-3-3-3-3--1-1-1--0-0-0-0-0-------------------------------1-1-1-1-1-1--3-3-3-3-3-3--0-0-0--|
D|----------------------------------0-0-0-0-0--5-5-5-5-5-5-5--7-7-7-7-7-7-7----------------------------------|

e|-----------------------------------------------------------------------------------------------------------|
B|-----------------------------------------------------------------------------------------------------------|
G|-3-3-3-3-3-3--5-5-5-5-5-5----------------------------3-3-3-3-3-3--5-5-5-5-5-5-----------------5-5--2-2-----|
D|-3-3-3-3-3-3--5-5-5-5-5-5----------------------------3-3-3-3-3-3--5-5-5-5-5-5-----------------5-5--2-2-----|
A|-1-1-1-1-1-1--3-3-3-3-3-3--0-0-0-0-0-0--3-3-3-3-3-3--1-1-1-1-1-1--3-3-3-3-3-3--0-0--5-5--7-7--3-3--0-0-----|
D|---------------------------0-0-0-0-0-0--3-3-3-3-3-3----------------------------0-0--5-5--7-7---------------|

e|--------------------------------------------------------------------|
B|--------------------------------------------------------------------|
G|-3-3-3-3-3-3--5-5-5-5-5-5--7-7--5-5---------------------------------|
D|-3-3-3-3-3-3--5-5-5-5-5-5--7-5--5-5------------------3-3-3-3-3-3--5-|
A|-1-1-1-1-1-1--3-3-3-3-3-3--5-5--3-3--5--5-5-5-5-5-5--1-1-1-1-1-1--3-|
D|-------------------------------------5--5-5-5-5-5-5-----------------|

[Chorus] 
e|----------------------------|
B|----------------------------|
G|---2----5---5--3---3--5---5-|
D|-0-2-0--5-5-5--3-3-3--5-5-5-|
A|-0-0-0--3-5-3--1-3-1--3-5-3-|
D|-0---0----------------------|

[Verse] 
    PM...............................................................................................
e|------------------------------------------------------------------------------------------------------|
B|------------------------------------------------------------------------------------------------------|
G|------------------------------------------------------------------------------------------------------|
D|------------------------------------------------------------------------------------------------------|
A|-5-5-5-5-5-5-5-5-5-5-5-5-5-5-5-5--3-3-3-3-3-3-3-3-3-3-3-3-3-3-3-3--2-2-2-2-2-2-2-2-2-2-2-2-2-2-2-2----|
D|------------------------------------------------------------------------------------------------------|

    PM.........    PM............................................................................
e|-------------------------------------------------------------------------------------------------|
B|-------------------------------------------------------------------------------------------------|
G|--------------5----------------------------------------------------------------------------------|
D|--------------5----------------------------------------------------------------------------------|
A|-1-1-1-1-1-1--3--3-3-3-3-3-3--5-5-5-5-5-5-5-5-5-5-5-5-5-5-5-5--3-3-3-3-3-3-3-3-3-3-3-3-3-3-3-3---|
D|-------------------------------------------------------------------------------------------------|

  PM............................                                              
e|----------------------------------|
B|----------------------------------|
G|----------------------------------|
D|----------------------------------|
A|-2-2-2-2-2-2-2-2-2-2-2-2-2-2-2-2--|
D|----------------------------------|

                                                PM........    PM.........
e|-----------------------------------------------------------------------------------------------------------|
B|-----------------------------------------------------------------------------------------------------------|
G|-3-3-3-3-3-3--5-5-5-5-5-5--3-3-3------------------------------------------3-3-3-3-3-3--5-5-5-5-5-5--2-2-2--|
D|-3-3-3-3-3-3--5-5-5-5-5-5--3-3-3------------------------------------------3-3-3-3-3-3--5-5-5-5-5-5--2-2-2--|
A|-1-1-1-1-1-1--3-3-3-3-3-3--1-1-1--0-0-0-0-0-------------------------------1-1-1-1-1-1--3-3-3-3-3-3--0-0-0--|
D|----------------------------------0-0-0-0-0--5-5-5-5-5-5-5--7-7-7-7-7-7-7----------------------------------|

e|-----------------------------------------------------------------------------------------------------------|
B|-----------------------------------------------------------------------------------------------------------|
G|-3-3-3-3-3-3--5-5-5-5-5-5----------------------------3-3-3-3-3-3--5-5-5-5-5-5-----------------5-5--2-2-----|
D|-3-3-3-3-3-3--5-5-5-5-5-5----------------------------3-3-3-3-3-3--5-5-5-5-5-5-----------------5-5--2-2-----|
A|-1-1-1-1-1-1--3-3-3-3-3-3--0-0-0-0-0-0--3-3-3-3-3-3--1-1-1-1-1-1--3-3-3-3-3-3--0-0--5-5--7-7--3-3--0-0-----|
D|---------------------------0-0-0-0-0-0--3-3-3-3-3-3----------------------------0-0--5-5--7-7---------------|

e|--------------------------------------------------------------------|
B|--------------------------------------------------------------------|
G|-3-3-3-3-3-3--5-5-5-5-5-5--7-7--5-5---------------------------------|
D|-3-3-3-3-3-3--5-5-5-5-5-5--7-5--5-5------------------3-3-3-3-3-3--5-|
A|-1-1-1-1-1-1--3-3-3-3-3-3--5-5--3-3--5--5-5-5-5-5-5--1-1-1-1-1-1--3-|
D|-------------------------------------5--5-5-5-5-5-5-----------------|

[Solo]
                                                       PM.....
e|---------------------------------------------------------------------------------|
B|---18--17-18-17-----------------------13--------------------------------8-10-6---|
G|------------------------------10-12-----12---10-9-10-------7-10+--9-10-----------|
D|---------------17-15-14--12-14-----10----------------8-10-------------10---------|
A|---------------------------------------------------------------------------------|
D|---------------------------------------------------------------------------------|

e|---------------------5-6-8-15--15-13-15-17--17-17|
B|---------------5-6-8-----------------------------|
G|---------5-6-8-----------------------------------|
D|---5-6-8-----------------------------------------|
A|-------------------------------------------------|
D|-------------------------------------------------|

[Verse] 
           PM..............................   PM..............................
e|----------------------------------------------------------------------------|
B|----------------------------------------------------------------------------|
G|-3--5-----------------------------------------------------------------------|
D|-3--5-----------------------------------------------------------------------|
A|-1--3-----------------------------------------------------------------------|
D|-------5-5-5-5-5-5-5-5-5-5-5-5-5-5-5-5-5--7-7-7-7-7-7-7-7-7-7-7-7-7-7-7-7-7-|

                          PM.......    PM.......
e|-------------------------------------------------|
B|-------------------------------------------------|
G|-8-8-8-8-8-8-8-8-8-8--5-5-5-5-5-5----------------|
D|-8-8-8-8-8-8-8-8-8-8--5-5-5-5-5-5----------------|
A|-6-6-6-6-6-6-6-6-6-6--3-3-3-3-3-3----------------|
D|-----------------------------------7-7-7-7-7-7---|

e|--------------------------------------------------------------------|
B|--------------------------------------------------------------------|
G|-3-3-3-3-3-3--5-5-5-5-5-5--7-7--5-5---------------------------------|
D|-3-3-3-3-3-3--5-5-5-5-5-5--7-5--5-5------------------3-3-3-3-3-3--5-|
A|-1-1-1-1-1-1--3-3-3-3-3-3--5-5--3-3--5--5-5-5-5-5-5--1-1-1-1-1-1--3-|
D|-------------------------------------5--5-5-5-5-5-5-----------------|

e|-----------------------------------------------------------------------------------------------------------|
B|-----------------------------------------------------------------------------------------------------------|
G|-3-3-3-3-3-3--5-5-5-5-5-5----------------------------3-3-3-3-3-3--5-5-5-5-5-5-----------------5-5--2-2-----|
D|-3-3-3-3-3-3--5-5-5-5-5-5----------------------------3-3-3-3-3-3--5-5-5-5-5-5-----------------5-5--2-2-----|
A|-1-1-1-1-1-1--3-3-3-3-3-3--0-0-0-0-0-0--3-3-3-3-3-3--1-1-1-1-1-1--3-3-3-3-3-3--0-0--5-5--7-7--3-3--0-0-----|
D|---------------------------0-0-0-0-0-0--3-3-3-3-3-3----------------------------0-0--5-5--7-7---------------|

e|--------------------------------------------------------------------|
B|--------------------------------------------------------------------|
G|-3-3-3-3-3-3--5-5-5-5-5-5--7-7--5-5---------------------------------|
D|-3-3-3-3-3-3--5-5-5-5-5-5--7-5--5-5------------------3-3-3-3-3-3--5-|
A|-1-1-1-1-1-1--3-3-3-3-3-3--5-5--3-3--5--5-5-5-5-5-5--1-1-1-1-1-1--3-|
D|-------------------------------------5--5-5-5-5-5-5-----------------|

[Chorus]
e|---------------------------------|
B|---------------------------------|
G|---2----5---5--3---3--5---5------|
D|-0-2-0--5-5-5--3-3-3--5-5-5------|
A|-0-0-0--3-5-3--1-3-1--3-5-3------|
D|-0---0----------------------7-8--|


************************************

| PM  Palm mute
  

************************************
Suggest correction
Creating personal tab
Creating personal tab
You can edit any tab online and save it as your Personal.

You can edit, replace or remove any tab part or add personal notes – all changes will be seen only by you.

Personal tabs can be accessed anytime from any device, even offline.
Learn more »
Give kudos to tab author, rate the tab!
1 2 3 4 5
comments
print report bad tab
guest
You may want to rate the tab now too:
select rating
Wanna post a correction for this tab? Suggest correction