Oops, an error
Loading. Please wait.

Teen Titans Theme Bass Tab

3,241 views 18 this week
1 commentread comment
1 2 3 4 5
2 more votes to show rating
add to favorites
launch autoscroll
font size
0
reset
guitar tuner
Autoscroll
slow
fast
+/-
esc
set tempo
stop
Help us to improve Ultimate-Guitar.com Take our survey!
×
Author
Difficulty
intermediate
Teen Titans theme on bass
hello, it's me, Mahomy, aka Mahomy1000 on YouTube. The original bass line to this song 
mirrored the guitar part. The tab is 100% correct. Play at standard tuning.

When there's trouble...
G|-------------------------------------|
D|-------4-2-0-------------------------|
A|-2-2-5-------2-0-2~------------------|
E|-------------------------------------|

From their tower they...
G|-------------------------------------|
D|-------2-4-2---2-4~------------------|
A|-2-2-5-------5-----------------------|
E|-------------------------------------|

When there's evil on the attack....
G|-------------------------------------|
D|-2-0-2-0-----------------------------|
A|---------2-2-0-2---------------------|  x2
E|-------------------------------------|

When the world needs...
G|-------------------------------------|
D|-2-0-2-0-3-2---2-4~------------------|
A|-------------5-----------------------|
E|-------------------------------------|

Teen Titans...GO!!!
G|---------|
D|---------|
A|-2-5-2-2~|
E|---------|

With their super powers...
G|-------------------------------------|
D|-------4-2-0-------------------------|
A|-2-2-5-------2-0-2~------------------|
E|-------------------------------------|

Never met a villain...
G|-------------------------------------|
D|-------2-4-2---2-4~------------------|
A|-2-2-5-------5-----------------------|
E|-------------------------------------|

They've got the bad guys on the run...
G|-------------------------------------|
D|-2-2-0-2-0---------------------------|
A|-----------2-2-0-2-------------------|  x2
E|-------------------------------------|

When the world is...
G|-------------------------------------|
D|-2-0-2-0-3-2---2-4~------------------|
A|-------------5-----------------------|
E|-------------------------------------|

Teen Titans...GO!!!
G|---------|
D|---------|
A|-2-5-2-2~|
E|---------|

Teen Titans...GO!!!
G|---------|
D|---------|
A|-2-5-2-2~|
E|---------|

1 2 3 4 Go!
G|-----------------------------|
D|-----------------------------|
A|-2-2-2-0-2-5-2-0-2--Q--------|
E|-----------------------------|

TEEN TITANS!

Symbols
__________________
~ - let ring      |
Q - quarter notes |
__________________|

Thank you!
Have fun!
Suggest correction
Give kudos to tab author, rate the tab!
1 2 3 4 5
comments
print report bad tab
1 comment total.
0 reply
dbzanto 10 Nov 05, 2013 04:06 PM

Thank this was very halpful

guest
You may want to rate the tab now too:
select rating
Wanna post a correction for this tab? Suggest correction