Oops, an error
Loading. Please wait.

The Amazing World Of Gumball Tab

292 views 15 this week
no commentswrite comment
1 2 3 4 5
3 more votes to show rating
add to favorites
launch autoscroll
font size
0
reset
how to read this tab
guitar tuner
Autoscroll
slow
fast
+/-
esc
set tempo
stop
Help us to improve Ultimate-Guitar.com Take our survey!
×
Author
About this tab version
Displays the full main melody of the... er... song. Was this info helpful? Yes No
[MAIN MELODY]

e |----10--9--10--9--10----7----7--6--7--6--7----3----3--2--3--5--7--10--7--5--7--5-------|
B |----------------------------------------------------------------------------------7----|
G |---------------------------------------------------------------------------------------|
D |----5------------------------5---------------------5-----------------------------------|
A |------------------5----------------------5---------------------5------------5----------|
E |----------------------------------------------------------------------------------5----|

e |----5--6--7--6--5-------5--7--5----------5--7--5-----5--7--5--7------------------------|
B |---------------------7-----------7----7-----------7----------------8-------------------|
G |---------------------------------------------------------------------------------------|
D |--------------------------------------------------------------5----5-------------------|
A |----5----------------5----------------5------------------------------------------------|
E |----------------5----------------5----------------5------------------------------------|

It repeats the same melody again, until it gets to the end, which there is a slight difference.

e |----5--6--7--6--5-------5--7--5----------5--7--5-----5--7--5---------------------------|
B |---------------------7-----------7----7-----------7-----------8------------------------|
G |---------------------------------------------------------------------------------------|
D |--------------------------------------------------------------5------------------------|
A |----5----------------5----------------5------------------------------------------------|
E |----------------5----------------5----------------5------------------------------------|
Suggest correction
Give kudos to tab author, rate the tab!
1 2 3 4 5
comments
print report bad tab
guest
You may want to rate the tab now too:
select rating
Wanna post a correction for this tab? Suggest correction