Oops, an error
Loading. Please wait.

The Book Of Life - The Apology Song tab

4,372 views 180 this week
3 commentsread comments
1 2 3 4 5
x 11
add to favorites
×
Save as Personal and add changes to this tab that will be seen only by you. Learn more ›
×
You can save this tab as Personal to edit and correct it or add notes. All changes will be seen only by you. Learn more »
launch autoscroll
font size
0
reset
how to read this tab
guitar tuner
edit
Autoscroll
slow
fast
+/-
esc
set tempo
stop
About this tab version
This is a note by note version of the song as it appears in the movie with lyrics. Was this info helpful? Yes No
If you want to add the A string in during the intro and first verse you can, it adds depth to the chords.
Notes are placed directly under the words they are played on.


[Intro]

e|--------------|
B|-1--0--0--0---|
G|-2--0--2--1---|
D|-2--2--3--2---|
A|--------------|
E|--------------|(x2)
 

[Verse]

 Toro, I am humble, for tonight I understand,
e|-------------------------------------------|
B|--1--------0-------------0-----------0-----|
G|--2--------0-------------2-----------1-----|
D|--2--------2-------------3-----------2-----|
A|-------------------------------------------|
E|-------------------------------------------|

Your royal blood was never meant, to decorate this sand,
e|---------------------------------------------------------|
B|-----1---------------0-----------------0-----------0-----|
G|-----2---------------0-----------------2-----------1-----|
D|-----2---------------0-----------------3-----------2-----|
A|---------------------------------------------------------|
E|---------------------------------------------------------|

You've suffered great injustice, so have thousands before you,
e|------------1------------0-----------------1-------------0---------------------|
B|------------1------------0-----------------1-------------0---------------------|
G|------------2------------1-----------------2-------------1---------------------|
D|------------3------------2-----------------3-------------2---------------------|
A|------------3------------2-----------------3-------------2---------------------|
E|------------1------------0-----------------1-------------0---------------------|

I offer an apology, and one long overdue.
e|--0----------3---------0---------0--0-----|
B|--1----------0---------0---------0--1-----|
G|--2----------0---------2---------1--2-----|
D|--2----------0---------3---------2--2-----|
A|--0----------2---------3---------2--0-----|
E|-------------3----------------------------|


[Chorus]

   I am sorry, toro I am sorry,    hear my song, and know I sing the truth,
e|-------------1---------1-0-----0-------0---0-----0-------0-----------0-----0-------0--|
B|-----------3---3----3--------0---0---0---------0---0---0-----------------0---0---0----|
G|---------2-------2---------2-------2---------0-------0-----------------0-------0------|
D|-------0-----------------0------------------------------------------------------------|
A|-------------------------------------------3-------------------------3----------------|
E|--------------------------------------------------------------------------------------|

  Although we were bred to fight,      I reach for kindness in your heart tonight,
e|-------------------0-------0---------------0---------0-------------------0--------------|
B|---------------------0---0---0-------0-------0-----------0---------------0--------------|
G|----------2------------0-----------2---2-----------1---------1-----------1--------------|
D|----------3----------------------3---3---3---------2-------------2-------2--------------|
A|----------3----------------------------------------2-----------------2---2--------------|
E|----------1--------------------1-------------------0---------------------0--------------|

And if you can forgive, and if you can forgive, love can truly live,
e|-------1-----1----------------------------------------------------------0----------|
B|-----3---3-----3--------1-----1-------1-------------------------1-----1-2-----2----|
G|---2-------2----------------2---2---2-----------1---2--4---7----2---2---2---2------|
D|-0------------------------2-------2-------------2---3--5---5----2-2-----2-2--------|
A|------------------------0-----------------------2---------------0-------0----------|
E|------------------------------------------------0---1--3---------------------------|

And if you can forgive, and if you can forgive, love can truly live,
e|-1-----1-------1-----------------------------------------------------------------------------------|
B|-----3---3---3----------1-----1-------1--------------------------1------1-------2--1------1-----1--|
G|---2-------2----------------2---2---2-------------1---2--4---7---2----2---2---2----2----2-----2----|
D|-0------------------------2-------2---------------2---3--5---5---2--2-------2------2--2-----2------|
A|------------------------0-------------------------2--------------0-----------------0---------------|
E|--------------------------------------------------0---1--3-----------------------------------------|


[Verse]

Toro, I am frightened, but I'll use my final breath, 
e|---------------------------------------------------------------|
B|-1------1--0---------0---------0-----------0--0---------0------|
G|-2----2----0------0------------2-------2------1------1---------|
D|-2--2------2---2---------------3---3----------2---2------------|
A|-0---------0-------------------0--------------0----------------|
E|---------------------------------------------------------------|

To tell you that I'm sorry, let us end this dance of death.
e|------------------------------------------------------------------|
B|-1--------------1----0---------0--0-------------0----0---------0--|
G|-2---------2---------0------0-----2--------2---------1------1-----|
D|-2----2--------------0---0--------3---3--------------2---2--------|
A|-0--------------------------------0------------------0------------|
E|---------------------3--------------------------------------------|

Two centuries of agony, that to your heart we sent,
e|-------1----0----0-----0----1--------0--------0-----0-------|
B|-------1--0----0-0--0-----0-1---0---------0---0--0-----0----|
G|-------2---------1----------2-----------------1-------------|
D|-------3---------2----------3-----------------2-------------|
A|-------3---------2----------3-----------------2-------------|
E|-------1---------0----------1-----------------0-------------|

Here now, with my amends, the senseless killing ends.
e|---0-------0------3----3----0---------0---------0-----|
B|---1---1-------1--0-0-----0-0---------0---------1-----|
G|---2--------------0---------2---------1---------2-----|
D|---2--------------0---------3---------2---------2-----|
A|---0--------------2---------3---------2---------0-----|
E|------------------3-------------------0---------------|


[Chorus]

   I am sorry, toro I am sorry,    hear my song, and know I sing the truth,
e|-------------1---------1-0-----0-------0---0-----0-------0-----------0-----0-------0--|
B|-----------3---3----3--------0---0---0---------0---0---0-----------------0---0---0----|
G|---------2-------2---------2-------2---------0-------0-----------------0-------0------|
D|-------0-----------------0------------------------------------------------------------|
A|-------------------------------------------3-------------------------3----------------|
E|--------------------------------------------------------------------------------------|

  Although we were bred to fight,      I reach for kindness in your heart tonight,
e|-------------------0-------0---------------0---------0-------------------0--------------|
B|---------------------0---0---0-------0-------0-----------0---------------0--------------|
G|----------2------------0-----------2---2-----------1---------1-----------1--------------|
D|----------3----------------------3---3---3---3-----2-------------2-------2--------------|
A|----------3----------------------------------------2-----------------2---2--------------|
E|----------1--------------------1-------------------0---------------------0--------------|

And if you can forgive, and if you can forgive, love can truly live,
e|-------1-------1--------------------------------------------------------0----------|
B|-----3---3---3----------1-----1-------1-------------------------1-----1-2-----2----|
G|---2-------2------------2---2---2---2-----------1---2--4---7----2---2---2---2------|
D|-0----------------------2-2-------2-------------2---3--5---5----2-2-----2-2--------|
A|------------------------0-----------------------2---------------0-------0----------|
E|------------------------------------------------0---1--3---------------------------|

And if you can forgive, and if you can forgive, love can truly live,
e|-1-----1-------1----------------------------------------------------------------------|
B|-----3---3---3----------1-----1-------1--------------------------1------1--2------2---|
G|---2-------2------------2---2---2---2-------------1---2--4---7---2----2----2----2-----|
D|-0----------------------2-2-------2---------------2---3--5---5---2--2------2--2-------|
A|------------------------0-------------------------2--------------0---------0----------|
E|--------------------------------------------------0---1--3----------------------------|


[Background to Violin]

e|-1-----1-------1-------------------------------------------------------0---------|
B|-----3---3---3----------1-----1-------1--------------------------1--3--1---------|
G|---2-------2------------2---2---2---2-------------1---2--4---7---2--2--2---------|
D|-0----------------------2-2-------2---------------2---3--5---5---2--2--2---------|
A|------------------------0-------------------------2--------------0-----0---------|
E|--------------------------------------------------0---1--3-----------------------|


[Outro]

And if you can forgive, and if you can forgive, love,             love will truly live,
e|-1-----1-------1--------------------------------------------------------------------------|
B|-----3---3---3----------1-----1-------1-------------0-------0-------------------1---------|
G|---2-------2------------2---2---2---2---------1---1---1---1-------1----2--4--7--2---------|
D|-0----------------------2-2-------2-----------2-2-------2---------2----3--5--5--2---------|
A|------------------------0---------------------2---------------------------------0---------|
E|----------------------------------------------0-------------------0----1--3---------------|

            
            
Suggest correction
Creating personal tab
Creating personal tab
You can edit any tab online and save it as your Personal.

You can edit, replace or remove any tab part or add personal notes – all changes will be seen only by you.

Personal tabs can be accessed anytime from any device, even offline.
Learn more »
comments
print report bad tab
3 comments total.
0 reply
agustinpdevoto 10 Apr 06, 2017 02:25 PM

👍

0 reply
abdulrahmanra1 10 Jul 26, 2017 05:47 PM

should i put capo somewhere ???!!!

guest
You may want to rate the tab now too:
select rating
Wanna post a correction for this tab? Suggest correction