Oops, an error
Loading. Please wait.

The Flintstones Theme tab

version 1
version 1
9,942 views 6 this week
6 commentsread comments
1 2 3 4 5
x 5
add to favorites
×
Save as Personal and add changes to this tab that will be seen only by you. Learn more ›
×
You can save this tab as Personal to edit and correct it or add notes. All changes will be seen only by you. Learn more »
launch autoscroll
font size
0
reset
how to read this tab
guitar tuner
edit
Autoscroll
slow
fast
+/-
esc
set tempo
stop
OK all... this is in standard tuning and it's played in C major...
it could be played in another key tho... ok... here it is...

e|-----------------8----------------------------------------------------|
B|--8-------------------10---8------------8-------------8---------------|
G|-------------------------------------------10-9-9-10-------7-9--------|
D|--------10-----------------------10---------------------10------------|
A|----------------------------------------------------------------------|
E|----------------------------------------------------------------------|

e|-----------------8----------------------------------------------------|
B|--8-------------------10---8------------8-------------8---------------|
G|------------------------------------------10-9-9-10--------7----------|
D|--------10-----------------------10---------------------10---10-------|
A|----------------------------------------------------------------------|
E|----------------------------------------------------------------------|

e|--7----------8-7-7--------7-----------------7-------------------------|
B|-------------------10-10----10-------10-------10-10-8-8-10-8----------|
G|--------9--------------------------------7----------------------------|
D|----------------------------------------------------------------------|
A|----------------------------------------------------------------------|
E|----------------------------------------------------------------------|

e|----------------8-----------------------------------------------------|
B|--8-----------------10---8--------------8-------------8---------------|
G|--------------------------------------------10-9-9-10------7----------|
D|--------10-----------------------10---------------------10------------|
A|----------------------------------------------------------------------|
E|----------------------------------------------------------------------|

e|--------------------------7--8--10--8---------------------------------|
B|-------8-----------8--10----------------------------------------------|
G|--9-10------7---------------------------------------------------------|
D|---------10-----------------------------------------------------------|
A|----------------------------------------------------------------------|
E|----------------------------------------------------------------------|

OR U CAN PLAY THIS... I FIND IT EASIER BUT HEY... LOL

e|--3-------8--5--3-------3--1--0-0-1-3--------0--|
B|-----1-------------1-------------------1--3-----|
G|------------------------------------------------|
D|------------------------------------------------|
A|------------------------------------------------|
E|------------------------------------------------|

e|--3-------8--5--3-------3--1--0-0-1-3-----------|
B|-----1-------------1-------------------1--3--1--|
G|------------------------------------------------|
D|------------------------------------------------|
A|------------------------------------------------|
E|------------------------------------------------|

e|--7-------8--7-7-5-5-7-5----5-------7--5-5-3-3-5-3--|
B|-----5-------------------------3--------------------|
G|----------------------------------------------------|
D|----------------------------------------------------|
A|----------------------------------------------------|
E|----------------------------------------------------|

e|--3-------8--5--3-------3--1--0-0-1-3--------0-1-3--------3-5-7-8--10--8--|
B|-----1-------------1------------------1-3----------1-3--------------------|
G|--------------------------------------------------------------------------|
D|--------------------------------------------------------------------------|
A|--------------------------------------------------------------------------|
E|--------------------------------------------------------------------------|
Suggest correction
Creating personal tab
Creating personal tab
You can edit any tab online and save it as your Personal.

You can edit, replace or remove any tab part or add personal notes – all changes will be seen only by you.

Personal tabs can be accessed anytime from any device, even offline.
Learn more »
comments
print report bad tab
6 comments total. Showing first comments.
0 reply
extrememan 50 Mar 26, 2004 07:00 PM

that good but hard to play
like long

0 reply
ibikinz 20 Sep 09, 2005 08:00 PM

i pefer the 2nd version

0 reply
Notgood 10 Sep 19, 2006 10:57 AM

wrong

guest
You may want to rate the tab now too:
select rating
Wanna post a correction for this tab? Suggest correction