Oops, an error
Loading. Please wait.

The Gummy Bear Song Tab

91 views 9 this week
no commentswrite comment
1 2 3 4 5
2 more votes to show rating
add to favorites
launch autoscroll
font size
0
reset
how to read this tab
guitar tuner
Autoscroll
slow
fast
+/-
esc
set tempo
stop
Help us to improve Ultimate-Guitar.com Take our survey!
×
Author
Difficulty
novice
About this tab version
This is the first tab of the song on the site. The previous versions are just chords. Also, the tab here refers to the lead singing part of the song. Was this info helpful? Yes No
Take note that this tab is for the Gummy Bear's *Singing*.

Above each tab section I mentioned which part of the song I reffered to.

 "Oh, I'm a Gummy Bear, Yes I'm a Gummy Bear, Oh, I'm a Yummy, tummy, Funny, Lucky Gummy Bear"
 "I'm a Jelly bear, Cuz I'm a Gummy bear, Oh I'm a movin', groovin', Jammin', Singin' Gummy Bear"

e|---------------------------------------------------------------|
B|---------------------------------------------------------------|
G|--------------------------9-9---9-9-9-7-7-7-7-7-7-7-9-7--------|      X2
D|--7-7-7-10-7-7---7-7-7-10-------------------------------10-7---|
A|---------------------------------------------------------------|
E|---------------------------------------------------------------|

 "Oh Yeah!"

e|---------------------------------------------------------------|
B|---------------------------------------------------------------|
G|---------------------------------------------------------------|
D|-7-10p7--------------------------------------------------------|
A|---------------------------------------------------------------|
E|---------------------------------------------------------------|

 "Gummy, Gummy, Gummy, Gummy, Gummy Bear."
 "Gummy, Gummy, Gummy, Gummy, Gummy Bear."

e|---------------------------------------------------------------|
B|---------------------------------------------------------------|
G|---------------------------------------------------------------|      X2
D|---------------------------------------------------------------|
A|---------------------------------------------------------------|
E|-5-5-0-0-5-5-0-0-5-5-0-----------------------------------------|

 "Boing day ba duty party,
  Boing day ba duty party,
  Boing day ba duty party party pop"

e|---------------------------------------------------------------|
B|---------------------------------------------------------------|
G|---------------------------------------------------------------|      X2
D|---------------------------------------------------------------|
A|-5-7--7-5-7-5-----5-7--7-5-7-5-----5-7--7-5-7-5-7-5------------|
E|--------------8----------------8--------------------8-5--------|

 "Oh, I'm a Gummy Bear, Yes I'm a Gummy Bear, Oh, I'm a Yummy, tummy, Funny, Lucky Gummy Bear"
 "I'm a Jelly bear, Cuz I'm a Gummy bear, Oh I'm a movin', groovin', Jammin', Singin' Gummy Bear"

e|---------------------------------------------------------------|
B|---------------------------------------------------------------|
G|--------------------------9-9---9-9-9-7-7-7-7-7-7-7-9-7--------|      X2
D|--7-7-7-10-7-7---7-7-7-10-------------------------------10-7---|
A|---------------------------------------------------------------|
E|---------------------------------------------------------------|

 "Oh Yeah!"

e|---------------------------------------------------------------|
B|---------------------------------------------------------------|
G|---------------------------------------------------------------|
D|-7-10p7--------------------------------------------------------|
A|---------------------------------------------------------------|
E|---------------------------------------------------------------|

 "Beba bi Duba duba yum yum,
  Beba bi Duba duba yum yum,
  Beba bi Duba duba yum yum"

e|---------------------------------------------------------------|
B|---------------------------------------------------------------|
G|---------------------------------------------------------------|      X3
D|---------------------------------------------------------------|
A|-7-7-5h7p5h7p5-------------------------------------------------|
E|---------------8-----------------------------------------------|

 "Three times you can bite me"

e|---------------------------------------------------------------|
B|---------------------------------------------------------------|
G|---------------------------------------------------------------|
D|-5-------------------------------------------------------------|
A|---7---5-7-5---------------------------------------------------|
E|-------------8-------------------------------------------------|

 "Beba bi Duba duba yum yum,
  Beba bi Duba duba yum yum,
  Beba bi Duba duba yum yum"

e|---------------------------------------------------------------|
B|---------------------------------------------------------------|
G|---------------------------------------------------------------|      X3
D|---------------------------------------------------------------|
A|-7-7-5h7p5h7p5-------------------------------------------------|
E|---------------8-----------------------------------------------|

 "Three times you can bite me"

e|---------------------------------------------------------------|
B|---------------------------------------------------------------|
G|---------------------------------------------------------------|
D|-5-------------------------------------------------------------|
A|---7---5-7-5---------------------------------------------------|
E|-------------8-------------------------------------------------|

 "Gummy, Gummy, Gummy, Gummy, Gummy Bear."
 "Gummy, Gummy, Gummy, Gummy, Gummy Bear."

e|---------------------------------------------------------------|
B|---------------------------------------------------------------|
G|---------------------------------------------------------------|      X2
D|---------------------------------------------------------------|
A|---------------------------------------------------------------|
E|-5-5-0-0-5-5-0-0-5-5-0-----------------------------------------|

 "Boing day ba duty party,
  Boing day ba duty party,
  Boing day ba duty party party pop"

e|---------------------------------------------------------------|
B|---------------------------------------------------------------|
G|---------------------------------------------------------------|      X2
D|---------------------------------------------------------------|
A|-5-7--7-5-7-5-----5-7--7-5-7-5-----5-7--7-5-7-5-7-5------------|
E|--------------8----------------8--------------------8-5--------|

 "Oh, I'm a Gummy Bear, Yes I'm a Gummy Bear, Oh, I'm a Yummy, tummy, Funny, Lucky Gummy Bear"
 "I'm a Jelly bear, Cuz I'm a Gummy bear, Oh I'm a movin', groovin', Jammin', Singin' Gummy Bear"

e|---------------------------------------------------------------|
B|---------------------------------------------------------------|
G|--------------------------9-9---9-9-9-7-7-7-7-7-7-7-9-7--------|      X2
D|--7-7-7-10-7-7---7-7-7-10-------------------------------10-7---|
A|---------------------------------------------------------------|
E|---------------------------------------------------------------|

  -With the higher tone-

 "Oh, I'm a Gummy Bear, Yes I'm a Gummy Bear, Oh, I'm a Yummy, tummy, Funny, Lucky Gummy Bear"
 "I'm a Jelly bear, Cuz I'm a Gummy bear, Oh I'm a movin', groovin', Jammin', Singin' Gummy Bear"

e|-------------------------------------------------------------------|
B|-------------------------------------------------------------------|
G|--------------------------11-11---11-11-11-9-9-9-9-9-9-9-11-9------|  X4
D|--9-9-9-12-9-9---9-9-9-12-------------------------------------12-9-|
A|-------------------------------------------------------------------|
E|-------------------------------------------------------------------|

 "Oh Yeah!"

e|---------------------------------------------------------------|
B|---------------------------------------------------------------|
G|---------------------------------------------------------------|
D|-9-12p9--------------------------------------------------------|
A|---------------------------------------------------------------|
E|---------------------------------------------------------------|

 "Party pop" (or "Body Bum" O.o)
e|---------------------------------------------------------------|
B|---------------------------------------------------------------|
G|---------------------------------------------------------------|      X3
D|---------------------------------------------------------------|
A|--7-5----------------------------------------------------------|
E|------7--------------------------------------------------------|

Good luck Gummying it up :D
Suggest correction
Give kudos to tab author, rate the tab!
1 2 3 4 5
comments
print report bad tab
guest
You may want to rate the tab now too:
select rating
Wanna post a correction for this tab? Suggest correction