Oops, an error
Loading. Please wait.

The Hex Girls - Earth Wind Fire And Air Tab

52 views 12 this week
no commentswrite comment
1 2 3 4 5
3 more votes to show rating
add to favorites
launch autoscroll
font size
0
reset
how to read this tab
guitar tuner
Autoscroll
slow
fast
+/-
esc
set tempo
stop
Help us to improve Ultimate-Guitar.com Take our survey!
×
Author
Difficulty
intermediate
About this tab version
This song is in regular tuning and doesn't use a capo. Was this info helpful? Yes No
pick slide only once at the beginning of the song

[Intro/Chorus] x2

Guitar 1
e|----------------------------------------------------|
B|----------------------------------------------------|
G|----------------------------------------------------|
D|----------------------------------------------------|
A|-//-------------------------3----------------3------|
E|-//-Pick Slide--5--3--5--3-----5-------3--5-----5---|

e|-------------------------------------------------------|
B|-------------------------------------------------------|
G|-------------------------------------------------------|
D|----3----5---------------------------------------------|
A|----3----5----7--5--3----------------------------------|
E|----1----3-------------5-------------------------------|

x1

e|--------------------------------------|
B|--------------------------------------|
G|--------------------------------------|
D|----3----5----------------------------|
A|----3----5----7--5--3-----------------|
E|----1----3-------------5--------------|

Guitar 2

x2
e|----------------------------------------------------|
B|----------------------------------------------------|
G|----------------------------------------------------|
D|----------------------------------------------------|
A|----------------------------------------------------|
E|----------------------------------------------------|

e|----------------------------------------------------|
B|----------------------------------------------------|
G|--------------9--7--5-------------------------------|
D|----3----5-------------7----------------------------|
A|----3----5------------------------------------------|
E|----1----3------------------------------------------|

x1

e|--------------------------------------|
B|--------------------------------------|
G|--------------9--7--5-----------------|
D|----3----5-------------7--------------|
A|----3----5----------------------------|
E|----1----3----------------------------|

[Verse]

x2
e|-------------------------------------------------|
B|-------------------------------------------------|
G|----5-5-5-5--------------------------------------|
D|----5-5-3-3----5-5-5-5----7-7-7-7----3-3--5-5----|
A|----3-3-3-3----5-5-5-5----7-7-7-7----3-3--5-5----|
E|---------------3-3-3-3----5-5-5-5----1-1--3-3----|

e|---------------------------------------------------------------------------|
B|---------------------------------------------------------------------------|
G|----5-5-5-5-------------------------------7--------------------------------|
D|----5-5-5-5----5-5-5-5----7-7-7-7----3----7--------------------------------|
A|----3-3-3-3----5-5-5-5----7-7-7-7----3----5--let ring----------------------|
E|---------------3-3-3-3----5-5-5-5----1-------------------------------------|

[Chorus]

[Verse]

[Chorus]

At the end of the final chorus it goes into a outro at the end so don't play this
e|--------------------------------------|
B|--------------------------------------|
G|--------------------------------------|
D|----3----5----------------------------|
A|----3----5----7--5--3-----------------|
E|----1----3-------------5--------------|

just play this then go to the outro
e|--------------------------------------|
B|--------------------------------------|
G|--------------------------------------|
D|----3----5----------------------------|
A|----3----5----------------------------|
E|----1----3----------------------------|


[Outro]

e|---------------------------------------------------------------------------|
B|---------------------------------------------------------------------------|
G|---------------------5---9--7--5-------------------------------------------|
D|--------5h7----7-5-7---7---------7~~~~-------------------------------------|
A|----5h7--------------------------------------------------------------------|
E|---------------------------------------------------------------------------|

 

************************************

| /  Slide up
| h  Hammer-on
| ~  Vibrato

************************************
Suggest correction
Give kudos to tab author, rate the tab!
1 2 3 4 5
comments
print report bad tab
guest
You may want to rate the tab now too:
select rating
Wanna post a correction for this tab? Suggest correction