Oops, an error
Loading. Please wait.

The Lion King - Lion Sleeps Tonight tab

version 1
version 1

Whole song

Interactive

45,498 views 21 this week
3 commentsread comments
1 2 3 4 5
x 9
add to favorites
×
Save as Personal and add changes to this tab that will be seen only by you. Learn more ›
×
You can save this tab as Personal to edit and correct it or add notes. All changes will be seen only by you. Learn more »
launch autoscroll
font size
0
reset
how to read this tab
guitar tuner
edit
Autoscroll
slow
fast
+/-
esc
set tempo
stop
Author
-----------------------------------------------------------------------------        
Lion King - Lion Sleeps Tonight Heavy Metal Version
-----------------------------------------------------------------------------
Tabbed by: Pothole (Gaza Attwood)
Email: attwoodgareth@hotmail.com

This is the same as the other version here, except ive tabbed it out beacuse
I suck at readin em, anyway, its better than doin ICT coursework. Also big
thanx to Joel Estes, who actually did this.
e|--------------------------------------------------------------------------|
B|--------------------------------------------------------------------------|
G|--2--4--6--4--6--7--6--4--2--4--6--4--2--6--4-----------------------------|
D|--2--4--6--4--6--7--6--4--2--4--6--4--2--6--4-Let Ring--------------------|
A|--0--2--4--2--4--5--4--2--0--2--4--2--0--4--2-----------------------------|
E|--------------------------------------------------------------------------|

e|--------------------------------------------------------------------------|
B|--------------------------------------------------------------------------|
G|--9--6--4--6--6--7--6--4--2--4--6--4--2--6--4-----------------------------|
D|--9--6--4--6--6--7--6--4--2--4--6--4--2--6--4-Let Ring--------------------|
A|--7--4--2--4--4--5--4--2--0--2--4--2--0--4--2-----------------------------|
E|--------------------------------------------------------------------------|


thats it really loadsa distortion and ur on ur way!!
Suggest correction
Creating personal tab
Creating personal tab
You can edit any tab online and save it as your Personal.

You can edit, replace or remove any tab part or add personal notes – all changes will be seen only by you.

Personal tabs can be accessed anytime from any device, even offline.
Learn more »
comments
print report bad tab
3 comments total.
0 reply
silvadolla 446 Aug 12, 2006 05:09 PM

right before the D5 in the second line, there should be an E5 chord

0 reply
Korn_Kid51695 10 Apr 22, 2007 07:35 PM

awesome. I knew I was playing it right.!!

+1 reply
Gryphon999 204 Aug 12, 2009 04:48 AM

seriously, everyone can make this.. just make powerchords of the single notes that are played. and still, u didnt even put palm mutes in it.. >.>

guest
You may want to rate the tab now too:
select rating
Wanna post a correction for this tab? Suggest correction