Oops, an error
Loading. Please wait.

The Lion King - This Land tab

version 1
version 1

Whole song

  • Simplified version of the one I found on songsterr... Show more

Interactive

631 views 6 this week
1 commentread comment
1 2 3 4 5
1 last vote to show rating
add to favorites
×
Save as Personal and add changes to this tab that will be seen only by you. Learn more ›
×
You can save this tab as Personal to edit and correct it or add notes. All changes will be seen only by you. Learn more »
launch autoscroll
font size
0
reset
how to read this tab
guitar tuner
edit
Autoscroll
slow
fast
+/-
esc
set tempo
stop
Author
About this tab version
Simplified version of the one I found on songsterr I could use some help on the ending and halfway through the 3rd row, leading up to that 3--1--3 just doesn't sound right when it's that simplified. Also I don't want to play multiple notes at once, just one note at a time. Any help on the song would be appreciated :). Was this info helpful? Yes No
[Main riff]
e|---8--7--5---3--5—3—5—8—8—7—5-—3--5---7--8---7--8---15-15--13--12--10—13—12—8--12-10
B|8----------------------------------------------------------------------------------|
G|-----------------------------------------------------------------------------------|
D|-----------------------------------------------------------------------------------|
A|-----------------------------------------------------------------------------------|
E|-----------------------------------------------------------------------------------|

e|10--12--10-----7--5--7--10--10--12--10------7--5-----------------------------------|
B|------------10--------------------------10--------0--------------------1-----0-----|
G|--------------------------------------------------------0-----0-----0-----2----2--0|
D|-----------------------------------------------------------4-----2-----------------|
A|-----------------------------------------------------------------------------------|
E|-----------------------------------------------------------------------------------|

e|-----------------------------------------------3----------------0--2--3--2----5--3-|
B|-0-------------0----------------------3--1--3-----3---4----------------------------|
G|----2----0--2---------0-----------0------------------------------------------------|
D|-------------------------4--5-2----------------------------------------------------|
A|-----------------------------------------------------------------------------------|
E|-----------------------------------------------------------------------------------|

e|----3--7--12-----10--8--7-----------------5--3--2--0----0--3--2----0-----0---12--10|
B|-5--------------------------5—7-—8---7--------------------------------4------------|
G|-----------------------------------------------------------------------------------|
D|-----------------------------------------------------------------------------------|
A|-----------------------------------------------------------------------------------|
E|-----------------------------------------------------------------------------------|

e|-8--7---7--5--7--8--7--5---3----12--10--12--15------15--17--15---10--12----14--15--|
B|-----------------------------------------------------------------------------------|
G|-----------------------------------------------------------------------------------|
D|-----------------------------------------------------------------------------------|
A|-----------------------------------------------------------------------------------|
E|-----------------------------------------------------------------------------------|

e|14--15---10--10--8--7--17--8--7--15--7--17----10--15--14--12---10--12--------0--2--|
B|-----------------------------------------------------------------------------------|
G|--------------------------------------------------------------------------0--------|
D|-----------------------------------------------------------------------------------|
A|-----------------------------------------------------------------------------------|
E|-----------------------------------------------------------------------------------|

e|3--10-----12-----15----------------------------------------------------------------|
B|-----------------------------------------------------------------------------------|
G|-----------------------------------------------------------------------------------|
D|-----------------------------------------------------------------------------------|
A|-----------------------------------------------------------------------------------|
E|-----------------------------------------------------------------------------------|

            
            
Suggest correction
Creating personal tab
Creating personal tab
You can edit any tab online and save it as your Personal.

You can edit, replace or remove any tab part or add personal notes – all changes will be seen only by you.

Personal tabs can be accessed anytime from any device, even offline.
Learn more »
Give kudos to tab author, rate the tab!
1 2 3 4 5
comments
print report bad tab
1 comment total.
0 reply
avihu2929 10 Jul 23, 2017 05:41 AM

thanks, the ending doesn't fit right, the rest sounds good

guest
You may want to rate the tab now too:
select rating
Wanna post a correction for this tab? Suggest correction