Oops, an error
Loading. Please wait.

The Little Mermaid - Under The Sea bass

version 1
version 1

Whole song

  • Added measures/timing for easier reading. Both mov... Show more

Interactive

17,587 views 24 this week
no commentswrite comment
1 2 3 4 5
x 5
add to favorites
×
Save as Personal and add changes to this tab that will be seen only by you. Learn more ›
×
You can save this tab as Personal to edit and correct it or add notes. All changes will be seen only by you. Learn more »
launch autoscroll
font size
0
reset
guitar tuner
edit
Autoscroll
slow
fast
+/-
esc
set tempo
stop
Author
Okay, first of all, I did not tab this song, my bassteacher did. And second of all,
is some tones missing but it's not noticeable.


You'll have to listen really carefully to the song to get the right rhythm!

Under the sea

intro (Ariel listen to me...)
G---------------3--------3------|
D------------3----------3-------|
A-1-----------------------------|
E-------------------------------|

vers (the seaweed is always greener...)
G--------------3-3---------3----|
D---0-330-3-3--------0-3-3------|
A-1----------------1------------| x2
E-------------------------------|

prechorus (just look at the world around you...)
G---0-3--3----------3-----0-3--3----------3---3-----|
D-1--------3----------3-1--------3----------3-------|
A--------------0-3-------------------0-3--------1---|
E------------1---------------------1----------------|

chorus 1
G-------0-3---------------333-0-----|
D-----1---------0-3-------------3---|
A-111-------111-------0-3-----------|
E-------------------1---------------|

G---0-3---------------333-0---------|
D-1---------------0-3-------3-------|
A-----------0-3-1-------------------|
E-------111-------------------------|

G---0-3---------------------0-------|
D-1-----------------0-----2---------|
A-----------0-3---1---333-----------|
E-------111-----3-------------------|

G---0-3---------------|
D-1-------------------|
A-----------0-3-------|
E-------111-----------|

intro x1

vers x2

prechorus x1

chorus 1 x2

Bridge
G-33-3-3-3-----3------|
D----------3-3--------|
A---------------------|
E---------------------|

(the newt play the flute...)
G---2-3----------------------|
D-3--------------------------|
A---------------0-3-11-------|
E-----------111--------------|

G-----3------------------333-0-------------333-0------|
D-1-1--------------------------3-----------------3----|
A--------3---1------0-31--------------0-31------------|
E----------1----1-1--------------11-1-----------------|

G-----------------------------|
D-1---1-0---0-----------------|
A---1-----1-----0-3-1---------|
E-------------1---------------|

chorus 1 x1

chorus 2
G---------------3-----3---------55-5----|
D------------3-------3------2-5---------|
A-1--------------------3--3-------------|
E---------------------------------------|

G-------------------------------|
D-----------2-5-----------------|
A---0-3-333-------2-5-333-0-----|
E-1-------------3-----------3---|

G-------------------------------|
D-----------------2-5-----------|
A---0-3-----2-5-3-----333-0-----|
E-1-----333-----------------3---|

G---------------------------2---|
D-------------------2-----4-----|
A---0-3-----2-5---3---555-------|
E-1-----333-----5---------------|

G--------------------------------------|
D--------------------------------------|
A---0-3-----2-5-3-----0-3-----2-5-3----|
E-1-----333---------1-----333----------|

outro
G---------------------------2---|
D-------------------2-----4-----|
A---0-3-----2-5---3---555-------|
E-1-----333-----5---------------|

G--------------------5~---------|
D-------------------------------|
A---0-3-----2-5-3~-3-----3------|
E-1-----333---------------------|

            
            
Suggest correction
Creating personal tab
Creating personal tab
You can edit any tab online and save it as your Personal.

You can edit, replace or remove any tab part or add personal notes – all changes will be seen only by you.

Personal tabs can be accessed anytime from any device, even offline.
Learn more »
comments
print report bad tab
guest
You may want to rate the tab now too:
select rating
Wanna post a correction for this tab? Suggest correction