Oops, an error
Loading. Please wait.

The Simpsons Theme solo tab

version 1
version 1
105,485 views 177 this week
41 commentsread comments
1 2 3 4 5
x 73
add to favorites
×
Save as Personal and add changes to this tab that will be seen only by you. Learn more ›
×
You can save this tab as Personal to edit and correct it or add notes. All changes will be seen only by you. Learn more »
launch autoscroll
font size
0
reset
how to read this tab
guitar tuner
edit
Autoscroll
slow
fast
+/-
esc
set tempo
stop
there are 2 ways you can play this song.

e|--0-2-5-3-0-----------------------------------------|
B|1-----------1------------------0-0-0-1--------------|
G|--------------2------0-------0----------------------|
D|----------------4-4-4--4-4-4------------------------|
A|----------------------------------------------------|
E|----------------------------------------------------|

or you can play it this way

e|---------------------------------------------------------------|
B|---------------------------------------------------------------|
G|--------2-0----------------------------------------------------|
D|----2-4-----2--------------------------------------------------|
A|--3-----------3-0---------0-------2-3-3-3-3--------------------|
E|------------------2-2-2-3---2-2-3------------------------------|
Suggest correction
Creating personal tab
Creating personal tab
You can edit any tab online and save it as your Personal.

You can edit, replace or remove any tab part or add personal notes – all changes will be seen only by you.

Personal tabs can be accessed anytime from any device, even offline.
Learn more »
comments
print report bad tab
41 comments total. Showing first comments.
0 reply
Tom 22 Aug 13, 2004 08:00 PM

the second ones ***

0 reply
Tom 22 Aug 13, 2004 08:00 PM

S H I T

0 reply
C3_Rocka 11 Mar 06, 2005 07:00 PM

I agree with Tom's 1st comment. Hoo-hah!

guest
Wanna post a correction for this tab? Suggest correction