Oops, an error
Loading. Please wait.

The Simpsons Theme tab

version 3
version 3
31,984 views 3 this week
4 commentsread comments
1 2 3 4 5
x 8
add to favorites
×
Save as Personal and add changes to this tab that will be seen only by you. Learn more ›
×
You can save this tab as Personal to edit and correct it or add notes. All changes will be seen only by you. Learn more »
launch autoscroll
font size
0
reset
how to read this tab
guitar tuner
edit
Autoscroll
slow
fast
+/-
esc
set tempo
stop
Author
Unregistered
Author/Artist: The Simpsons 
Title: Theme Song 
Transcribed by: David Neuman 
Email: bogcarac69@hotmail.com 
this sounds like the right notes used but i could be wrong so e-mail me if u got 
any questions 

------------------------------------------------------------------------------ 
------------------------------------------------------------------------------ 
------------------------------------------------------------------------------ 
-------------11-9------------------------------------------------------------- 
-----11--13------------------------------------------------------------------- 
-12-----------------------12--9---6-6-6-6-7---6-6-6-7-9-12-12-12-12-----------

Suggest correction
Creating personal tab
Creating personal tab
You can edit any tab online and save it as your Personal.

You can edit, replace or remove any tab part or add personal notes – all changes will be seen only by you.

Personal tabs can be accessed anytime from any device, even offline.
Learn more »
comments
print report bad tab
4 comments total. Showing first comments.
0 reply
ibanez420freak 15 Jun 05, 2002 08:00 PM

it doesnt sound right to me...your missing a lot...i suggest you get power tab editor and check your tabs before you put them on here

0 reply
holman 10 Oct 04, 2002 08:00 PM

these are 100% correct.

e--2-4-7-5-2-3-0-----------------
b3----------------------1-1-1-1-1-3-333
g----------------1-1-1-2
d
a
e

0 reply
Murdocs_Mayhem 10 Apr 04, 2004 08:00 PM

it doesnt sound bad

guest
Wanna post a correction for this tab? Suggest correction