Oops, an error
Loading. Please wait.

Up Theme Tab

version 1
version 1

Intro

  • The current version captured the essence, but did ... Show more

Whole song

31 views 6 this week
no commentswrite comment
1 2 3 4 5
2 more votes to show rating
add to favorites
launch autoscroll
font size
0
reset
how to read this tab
guitar tuner
Autoscroll
slow
fast
+/-
esc
set tempo
stop
Help us to improve Ultimate-Guitar.com Take our survey!
×
Author
About this tab version
The current version captured the essence, but did not line up with the recording. Was this info helpful? Yes No
   E|----5---0-----5---------1-------|----5-3----5-3-3-1--------3---0---|----3---------0-------------------|
   B|--6---6-----6---6-3---3---3-1---|--3------3-----5----3---6---6-----|--5---5-1---1---1-------1---------|
   G|--------------------------------|----------------------------------|------------------3---3---3-2-3---|
   D|--------------------------------|----------------------------------|----------------------------------|
   A|--------------------------------|----------------------------------|----------------------------------|
   E|--------------------------------|----------------------------------|----------------------------------|

   E|------0-------0-------------------|
   B|--1-3-----1-3---------------------|
   G|----------------------------------|
   D|----------------------------------|
   A|----------------------------------|
   E|----------------------------------|

(REPEAT - written out)

   E|----5---0-----5---------1-------|----5-3----5-3-3-1--------3---0---|----3---------0-------------------|
   B|--6---6-----6---6-3---3---3-1---|--3------3-----5----3---6---6-----|--5---5-1---1---1-------1---------|
   G|--------------------------------|----------------------------------|------------------3---3---3-2-3---|
   D|--------------------------------|----------------------------------|----------------------------------|
   A|--------------------------------|----------------------------------|----------------------------------|
   E|--------------------------------|----------------------------------|----------------------------------|

   E|------0-------0-------------------|
   B|--1-3-----1-3---------------------|
   G|----------------------------------|
   D|----------------------------------|
   A|----------------------------------|
   E|----------------------------------|

ENDING

E|----5---------5-10-12---10-13-12--|
B|--6---5-3---6---------------------|
G|----------------------------------|
D|----------------------------------|
A|----------------------------------|
E|----------------------------------|
Suggest correction
Give kudos to tab author, rate the tab!
1 2 3 4 5
comments
print report bad tab
guest
You may want to rate the tab now too:
select rating
Wanna post a correction for this tab? Suggest correction