Oops, an error
Loading. Please wait.

Yukari Hashimoto - Lost My Pieces Tab

7 views 1 this week
no commentswrite comment
1 2 3 4 5
3 more votes to show rating
add to favorites
launch autoscroll
font size
0
reset
how to read this tab
guitar tuner
Autoscroll
slow
fast
+/-
esc
set tempo
stop
Help us to improve Ultimate-Guitar.com Take our survey!
×
About this tab version
This has 2 guitar parts- Rhythm and Lead. Written by ear my not be 100% correct. Was this info helpful? Yes No
LEAD GUITAR

[Intro]
e |---10---------10--12--------|------------------------------------|
B |--------8--7-----------12---|--12--13--12--10-------------10-----|
G |----------------------------|-----------------12--11--12---------|
D |----------------------------|--------------------------------12--|
A |----------------------------|------------------------------------|
E |----------------------------|------------------------------------|

e |-----------------------10-------------------------|
B |----------10--------10------10-----12---11---12---|
G |--11--12---------11-------------------------------|
D |--------------------------------------------------|
A |--------------------------------------------------|
E |--------------------------------------------------|

e |---------------------------------------------------|
B |----------------------------10---12--------10------|
G |--9--11--12------9--11--12-------------------------|
D |------------12-------------------------------------|
A |---------------------------------------------------|
E |---------------------------------------------------|

[Main Part]
e |----------10--12--10--15--14----------12--10--------------|
B |--12--13----------------------15--10-------------10--13---|
G |----------------------------------------------------------|
D |----------------------------------------------------------|
A |----------------------------------------------------------|
E |----------------------------------------------------------|

e |--------------12--10----------------------------------------------|
B |--12--13--12--------------10--13--12------------------------------|
G |----------------------12------------------------------------------|
D |------------------------------------------------------------------|
A |------------------------------------------------------------------|
E |------------------------------------------------------------------|

e |----------10--12--10--15--14----------12--10----15--17--20----|
B |--12--13----------------------15--10--------------------------|
G |--------------------------------------------------------------|
D |--------------------------------------------------------------|
A |--------------------------------------------------------------|
E |--------------------------------------------------------------|

e |---19---17---15--14---|
B |---20---19---17--15---|
G |----------------------|
D |----------------------|
A |----------------------|
E |----------------------|

[Bridge]
e |---10---------10--12--------|------------------------------------|
B |--------8--7-----------12---|--12--13--12--10-------------10-----|
G |----------------------------|-----------------12--11--12---------|
D |----------------------------|--------------------------------12--|
A |----------------------------|------------------------------------|
E |----------------------------|------------------------------------|

e |-----------------------10-------------------------|
B |----------10--------10------10-----12---11---12---|
G |--11--12---------11-------------------------------|
D |--------------------------------------------------|
A |--------------------------------------------------|
E |--------------------------------------------------|

[Main Part]
e |---------------------------------------------------|
B |----------------------------10---12--------10------|
G |--9--11--12------9--11--12-------------------------|
D |------------12-------------------------------------|
A |---------------------------------------------------|
E |---------------------------------------------------|

e |----------10--12--10--15--14----------12--10--------------|
B |--12--13----------------------15--10-------------10--13---|
G |----------------------------------------------------------|
D |----------------------------------------------------------|
A |----------------------------------------------------------|
E |----------------------------------------------------------|

e |--------------12--10-------------------|
B |--12--13--12--------------10--13--12---|
G |----------------------12---------------|
D |---------------------------------------|
A |---------------------------------------|
E |---------------------------------------|

e |----------10--12--10--15--14----------12--10----15--17--20----|
B |--12--13----------------------15--10--------------------------|
G |--------------------------------------------------------------|
D |--------------------------------------------------------------|
A |--------------------------------------------------------------|
E |--------------------------------------------------------------|

e |---19---17---15---|
B |---20---19---17---|
G |------------------|
D |------------------|
A |------------------|
E |------------------|

[Outro]
e |---10---------10--12--14--15--22----|
B |--------8--7------------------------|
G |------------------------------------|
D |------------------------------------|
A |------------------------------------|
E |------------------------------------|


[RHYTHM GUITAR]

e |----------------------------2---|---0-----------------------------|
B |----------------------------3---|---1----1---------------3--------|
G |------------7---------------2---|---0----------------0------------|
D |---------5------------0-----0---|---2-------------0---------------|
A |------7--------5------------0---|---3-----------------------------|
E |---0----------------------------|---------------------------------|

e |-------------5---------------|------------------------------7-----|
B |-----------------------------|----------10--------7---------------|
G |---5-------------------------|----------11-----6-------8----------|
D |------5---7--------4-5-4-4---|------7----------4------------------|
A |-----------------------------|---9--------------------------------|
E |-----------------------------|-------------------------7----------|

e |----------------------------|
B |----------------------------|
G |-------------5----4----2----|
D |-------------5----5----4----|
A |---7----5----3----7----5----|
E |---5----3-------------------|

e |---------------0-----7------|---------------------5------|
B |------------0-----8-----8---|------------------7-----7---|
G |---------5------------------|---------------7------------|
D |------5---------------------|------------7---------------|
A |---3------------------------|---5-----5------------------|
E |----------------------------|------5---------------------|

e |------------0-----0-------0---|---------------------5------|
B |---------------0------15------|------------------7-----7---|
G |----------------------16------|---------------7------------|
D |---------2--------------------|------------7---------------|
A |------2-----------------------|---5-----5------------------|
E |---0--------------------------|------5---------------------|

e |---------------------3---10---|------------------5---10---5---|
B |------------------5-----------|---------------7---------------|
G |---------------4--------------|------------7------------------|
D |------------5-----------------|-------------------------------|
A |---3-----3--------------------|---5-----5---------------------|
E |------3-----------------------|------5------------------------|

e |------------------------------|------------3-----2---|
B |---------------------3--------|---------5--------3---|
G |------------0-----2------2----|------5-----------2---|
D |---------------4--------------|---5--------------0---|
A |---2-----2--------------------|---3--------------0---|
E |------0-----------------------|----------------------|

[CHORDS] [Intro/Verse]
Em    D     C    Bm   
C     D     Cdim   F#m    B

[RHYTHM]
e |---------------0-----7------|---------------------5------|
B |------------0-----8-----8---|------------------7-----7---|
G |---------5------------------|---------------7------------|
D |------5---------------------|------------7---------------|
A |---3------------------------|---5-----5------------------|
E |----------------------------|------5---------------------|

e |------------0-----0-------0---|---------------------5------|
B |---------------0------15------|------------------7-----7---|
G |----------------------16------|---------------7------------|
D |---------2--------------------|------------7---------------|
A |------2-----------------------|---5-----5------------------|
E |---0--------------------------|------5---------------------|

e |---------------------3---10---|------------------5---10---5---|
B |------------------5-----------|---------------7---------------|
G |---------------4--------------|------------7------------------|
D |------------5-----------------|-------------------------------|
A |---3-----3--------------------|---5-----5---------------------|
E |------3-----------------------|------5------------------------|

e |------------------------------|------------3-------|
B |---------------------3--------|---------5----------|
G |------------0-----2------2----|------5-------------|
D |---------------4--------------|---5----------------|
A |---2-----2--------------------|---3----------------|
E |------0-----------------------|--------------------|

[Outro]
e |-----------------------------|
B |-----------------------------|
G |-----------------------------|
D |-----------------------------|
A |---10------------17----------|
E |---8-------------15----------|

[CHORDS]
[Chorus/Main Part]
C     D      Em     D
C     D      Em     D
C     D      Em     D     C
Suggest correction
Give kudos to tab author, rate the tab!
1 2 3 4 5
comments
print report bad tab
guest
You may want to rate the tab now too:
select rating
Wanna post a correction for this tab? Suggest correction