Oops, an error
Loading. Please wait.

Flklypa Tab

2,688 views 3 this week
no commentswrite comment
1 2 3 4 5
1 last vote to show rating
add to favorites
launch autoscroll
font size
0
reset
how to read this tab
guitar tuner
Autoscroll
slow
fast
+/-
esc
set tempo
stop
Help us to improve Ultimate-Guitar.com Take our survey!
×
Author
Difficulty
novice
This is as good as you can get, when you haven't heard the original song for years.. 
LUCK :D

e|-0-5-7-8-7-5-3-0-------------------------------------------------|
B|-----------------1-3-5-6-5-3-1-3-5-3-1-0-------------------------|
G|-----------------------------------------------------------------|
D|-----------------------------------------------------------------|
A|-----------------------------------------------------------------|
E|-----------------------------------------------------------------|

e|-0-5-7-8-7-5-3-0-------------------------------------------------|
B|-----------------1-3-5-3-1-0-------------------------------------|
G|-----------------------------2-1-2-2-----------------------------|
D|-----------------------------------------------------------------|
A|-----------------------------------------------------------------|
E|-----------------------------------------------------------------|


e|-5-3-1-0-------------1-0---0-------------------------------------|
B|---------1-----0-1-3-----3---------------------------------------|
G|-----------2-2---------------------------------------------------|
D|-----------------------------------------------------------------|
A|-----------------------------------------------------------------|
E|-----------------------------------------------------------------|


e|-0-5-7-8-7-5-3-0-------------------------------------------------|
B|-----------------1-3-5-6-5-3-1-3-5-3-1-0-------------------------|
G|-----------------------------------------------------------------|
D|-----------------------------------------------------------------|
A|-----------------------------------------------------------------|
E|-----------------------------------------------------------------|

e|-0-5-7-8-7-5-3-0-------------------------------------------------|
B|-----------------1-3-5-3-1-0-------------------------------------|
G|-----------------------------2-1-2-2-----------------------------|
D|-----------------------------------------------------------------|
A|-----------------------------------------------------------------|
E|-----------------------------------------------------------------|

e|-5-3-1-0-------------1-0---0-------------------------------------|
B|---------1-----0-1-3-----3---------------------------------------|
G|-----------2-2---------------------------------------------------|
D|-----------------------------------------------------------------|  X2
A|-----------------------------------------------------------------|
E|-----------------------------------------------------------------|
Suggest correction
Give kudos to tab author, rate the tab!
1 2 3 4 5
comments
print report bad tab
guest
You may want to rate the tab now too:
select rating
Wanna post a correction for this tab? Suggest correction