Oops, an error
Loading. Please wait.

Frere Jacques - Brother John Tab

2,654 views 1 this week
2 commentsread comments
1 2 3 4 5
accurate
x 4
add to favorites
launch autoscroll
font size
0
reset
how to read this tab
guitar tuner
Autoscroll
slow
fast
+/-
esc
set tempo
stop
Help us to improve Ultimate-Guitar.com Take our survey!
×
Difficulty
novice
----------------------------------------------------------------|
----------------------------------------------------------------|
----------------------------------------------------------------|
-0-2-4-0-0-2-4-0-5-7-9-5-7-9-9-11-9-7-6---9-11-9-7-6------------|
----------------------------------------7------------7-7-7-7-7--|
--------------------------------------------------------7---7---|


Sounds right to me. Let me know if I am tone deaf...Cheers
Suggest correction new What's this?
You can suggest a correction to this tab. Community and Mods will review your correction and vote to approve or reject it.
comments
print report bad tab
2 comments total.
0 reply
Cachabolik 397 wrote on December 17 2015, 03:14 pm

clearly wrong after the first little phrase, I will post correction in comments in a second thank you anyway for posting the song

0 reply
Cachabolik 397 wrote on December 17 2015, 03:19 pm

----------------------------------------------------------------|
----------------------------------------------------------------|
----------------------------------------------------------------|
-0-2-4-0-0-2-4-0-4-5-7--4-5-7---7-9-7-5-4-0-7-9-7-5-4-0-2---0---------|
---------------------------------------------------------0-----------|
---------------------------------------------------------------------|

guest
You may want to rate the tab now too:
select rating
Please do not post tabs as comments. Select "correction" instead!