Oops, an error
Loading. Please wait.

Frere Jacques Tab

version 3
version 3

Whole song

10,968 views 81 this week
1 commentread comment
1 2 3 4 5
x 13
add to favorites
launch autoscroll
font size
0
reset
how to read this tab
guitar tuner
Autoscroll
slow
fast
+/-
esc
set tempo
stop
Author
Difficulty
Tuning
novice
E A D G B E
-------------------------------------------------------------------------------
                             Frère Jacques - Misc Children
-------------------------------------------------------------------------------
Tabbed by: Shaun
Email: N/A

Tuning: Standard

e|---------------------------------------------------------------------------|
B|---------------------------------------------------------------------------|
G|---0---2---4---0-------0---2---4---0---4---5---7-----4---5---7-------------|
D|---------------------------------------------------------------------------|
A|---------------------------------------------------------------------------|
E|---------------------------------------------------------------------------|

e|---------------------------------------------------------------------------|
B|---3-5-3-1-0-------3-5-3-1-0-----------------------------------------------|
G|---------------0---------------0---0-------0------0-------0----------------|
D|---------------------------------------0--------------0--------------------|
A|---------------------------------------------------------------------------|
E|---------------------------------------------------------------------------|
Suggest correction
comments
print report bad tab
1 comment total.
0 reply
USAF123 10 Apr 22, 2017 10:57 PM

👍

guest
You may want to rate the tab now too:
select rating
Wanna post a correction for this tab? Suggest correction