Oops, an error
Loading. Please wait.

In The Night Garden Tab

version 1
version 1

Whole song

Interactive

29,376 views 39 this week
2 commentsread comments
1 2 3 4 5
x 6
add to favorites
launch autoscroll
font size
0
reset
how to read this tab
guitar tuner
Autoscroll
slow
fast
+/-
esc
set tempo
stop
Help us to improve Ultimate-Guitar.com Take our survey!
×
Author
Difficulty
novice
This is the Iggle Piggle Song from in the night garden.
Great one to play for your kids!
i figured this out on my keyboard as my sister was watching the programme
e:-------------------------------------------:
B:-------------------------------------------:
G:-------------------------------------------:
D:-------------------------------------------:
A:-7---10-8-7-8-7-------7-8-10-12-10-8-7-7---:
E:---8------------10-10--------------------10:


e:-------------------------------------------:
B:-------------------------------------------:
G:-------------------------------------------:
D:-------------------------------------------:
A:-7---10-8-7-8-7-------7-8-10-12-10-12-14-15:
E:---8------------10-10----------------------:

;:
Suggest correction
comments
print report bad tab
2 comments total.
+1 reply
getmesomekaka 10 Oct 21, 2008 04:32 PM

the last 3 notes should be 12 14 15 which is A B C

0 reply
JaymoHendrix 10 Mar 23, 2010 03:36 PM

hhaha mate this is legend it made my bro so happy cheers !!!!

guest
You may want to rate the tab now too:
select rating
Wanna post a correction for this tab? Suggest correction