Oops, an error
Loading. Please wait.

Nursery Rhymes Tab

9,113 views 30 this week
no commentswrite comment
1 2 3 4 5
accurate
x 9
add to favorites
launch autoscroll
font size
0
reset
how to read this tab
guitar tuner
Tab Pro tools
  • play this tab
  • loop segment
  • change instrument
  • show fretboard
  • metronome
Autoscroll
slow
fast
+/-
esc
set tempo
stop
Here is a collection of Nursery Rhymes:


Mary Had A Little Lamb
E------------------------------------|-----------------------|
B------------------------------------|-----------------------|
G------------------------------------|-----------------------|
D-------------------------0-0--------|-----------------------|
A---2-0---0-2-2-2-0-0-0-2-----2-0----|---0-2-2-2-0-0-2-0-----|
E-------3-------------------------3--|-------------------3---|


Twinkle Twinkle Little Star
E-----------------------------------|----------------------------------------|
B-----------------------------------|----------------------------------------|
G-------0-0-2-2-0---------------0-0-|--------------0-0-2-2-0-----------------|
D-----------------3-3-2-2-0-0-------|-3-3-2-2-0--------------3-3-3-2-2-0-0---|
A---3-3-----------------------3-----|----------3-3------------------------3--|
E-----------------------------------|----------------------------------------|


London Bridge
E----------------------------|---------------------------|
B----------------------------|---------------------------|
G---0-2-0-------0------------|-0-0-2-0-------0---0-------|
D---------3-2-3---0-2-3-2-3--|---------3-2-3---0---2-----|
A----------------------------|-----------------------3---|
E----------------------------|---------------------------|

Three Blind Mice
E----------------------------------|---------------------------------------|
B----------------------------1-1-0-|--0-1-------1-1-0---0-1------1-1-0-----|
G--------------0-----0------0------|-2-----0-0-0-------2-----0-0-0------2--|
D---2-0---2-0---3-3-2--3-3-2-------|---------------------------------------|
A--------3----3--------------------|---------------------------------------|
E----------------------------------|---------------------------------------|

thanks for playing
xx
comments
print report bad tab
I want to post or [tab]
guest
You may want to rate the tab now too:
select rating
Please do not post tabs as comments. Select "correction" instead!