Oops, an error
Loading. Please wait.

Old Mcdonald Tab

version 1
version 1

Whole song

Interactive

70,599 views 75 this week
6 commentsread comments
1 2 3 4 5
x 52
add to favorites
launch autoscroll
font size
0
reset
how to read this tab
guitar tuner
Autoscroll
slow
fast
+/-
esc
set tempo
stop
Help us to improve Ultimate-Guitar.com Take our survey!
×
Now this has to be one of the most complicated songs I've ever tabbed in my life!
(Hahaha) Actually, it's the first song I've ever tabbed, so technically it is the
hardest too. Well anywho. Enough with my rambling... if it's not correct then
boo-hoo for you. Don't blame me, I play a Bass Clarinet! Plus, it's not nice to
blame girls. :D

e|------------------------|
B|------------------------|
G|------------------------|
D|------------------------|
A|------------------------|
E|5-5-5-0-2-2-0-9-9-7-7-5-|

"Old McDonald had a farm e-i-e-i-o..."

e|--------------------------|
B|--------------------------|
G|--------------------------|
D|--------------------------|
A|--------------------------|
E|0-5-5-5-0-2-2-0-9-9-7-7-5-|

"...and on his farm he had some --->Insert Farm Animal Here<--- e-i-e-i-o..."

e|-----------------------------------------|
B|-----------------------------------------|
G|-----------------------------------------|
D|-----------------------------------------|
A|-----------------------------------------|
E|0-5-5-5-0-5-5-5-0-5-5-5-5-5-5-5-5-5-5----|

"...with a --->Insert Farm Animal Noise Here<-------------------| here,
and a --->Insert Farm Animal Noise Here<------------------------| there.
Here --->Farm Animal Noise<---, there --->Farm Animal Noise<----|
everywhere a --->Farm Animal Noise<-----------------------------|.."

e|------------------------|
B|------------------------|
G|------------------------|
D|------------------------|
A|------------------------|
E|5-5-5-0-2-2-0-9-9-7-7-5-|

"...Old McDonald had a farm, e-i-e-i-o(ooooooooooooo)!!!"

(Repeat as many times as your heart desires)

Now that last note you can hold as long as you want. !:^)

If you didn't notice, this entire song is played on the "E" string. So just
ignore the rest of them b/c you're only going to be using that one.

All complaints go to: i_love_eyebrow_2@hotmail.com
Suggest correction
comments
print report bad tab
6 comments total. Showing first comments. show 1 bad comment
+1 reply
PunkRocker7658 195 Mar 19, 2003 12:00 AM

dude! cool!

+2 reply
pokescab 50 May 15, 2004 12:00 AM

can u do a punk version?

guest
You may want to rate the tab now too:
select rating
Wanna post a correction for this tab? Suggest correction