Oops, an error
Loading. Please wait.

Twinkle Twinkle Little Star Bass Tab

version 1
version 1

Whole song

Interactive

6,239 views 3 this week
no commentswrite comment
1 2 3 4 5
x 5
add to favorites
launch autoscroll
font size
0
reset
guitar tuner
Autoscroll
slow
fast
+/-
esc
set tempo
stop
Help us to improve Ultimate-Guitar.com Take our survey!
×
Author
Difficulty
novice
     E  E  E  E  E  E  Q       E  E  E  E  E  E  Q     
G||--------0--0--2--2--0----|-------------------------|
D||-------------------------|--3--3--2--2--0--0-------|
A||--3--3-------------------|--------------------3----|
E||-------------------------|-------------------------|


  E  E  E  E  E  E  Q       E  E  E  E  E  E  Q       E  E  E  E  E  E  Q     
--0--0-------------------|--0--0-------------------|--------0--0--2--2--0----|
--------3--3--2--2--0----|--------3--3--2--2--0----|-------------------------|
-------------------------|-------------------------|--3--3-------------------|
-------------------------|-------------------------|-------------------------|


  E  E  E  E  E  E  Q      
-------------------------||
--3--3--2--2--0--0-------||
--------------------3----||
-------------------------||




Duration Legend
---------------
W - whole
H - half
Q - quarter
E - 8th
S - 16th
T - 32nd
X - 64th
. - note dotted
|-n-|  - n-tuplets
Suggest correction
comments
print report bad tab
guest
You may want to rate the tab now too:
select rating
Wanna post a correction for this tab? Suggest correction