Oops, an error
Loading. Please wait.

Twinkle Twinkle Little Star Tab

version 1
version 1

Whole song

Interactive

644,256 views 1,515 this week
28 commentsread comments
1 2 3 4 5
x 519
add to favorites
launch autoscroll
font size
0
reset
how to read this tab
guitar tuner
×
Best way to learn
"Twinkle Twinkle Little Star"
Autoscroll
slow
fast
+/-
esc
set tempo
stop
This is my first tab.This how I play it.So sorry if I mess up.If I do please comment.


   e|----------0-0--------------------------------------------------------0-0-|
   b|------3-3-----3--1-1-0-0--------3-3-1-1-0-0----3-3-1-1-0-0--------3-3---3|
   g|--0-0---------------------2-2-0--------------2--------------2-0-0--------|
   d|-------------------------------------------------------------------------|
   a|-------------------------------------------------------------------------|
   E|-------------------------------------------------------------------------|

   e|---------------------------------|
   b|-1-1-0-0-------------------------|
   g|---------2-2-0-------------------|
   d|---------------------------------|
   a|---------------------------------|
   E|---------------------------------|


THANKS FOR PLAYING MY TAB!!!!!!! Please rate high.
Suggest correction
comments
print report bad tab
28 comments total. Showing first comments.
+16 reply
Tammcnelis 62 Mar 30, 2009 07:55 AM

see where ur doing fret 3 2nd string
there should be two 3's

u do have 2 3's at the start but not near the end

+7 reply
ericnorcross 209 Nov 03, 2009 03:56 PM

I used this tab to teach my girlfrien dguitar... Mr. DylanDiego.

+4 reply
ThePenguin 10 Apr 27, 2010 07:01 AM

Sorry, I of course ment:

e----------0-0--------------------------------------------------------0-0--|
b------3-3-----3--1-1-0-0--------3-3-1-1-0-0----3-3-1-1-0-0--------3-3-----|
g--0-0---------------------2-2-0--------------2--------------2-0-0---------|
d--------------------------------------------------------------------------|
a--------------------------------------------------------------------------|
E--------------------------------------------------------------------------|

e---------------------------------|
b-1-1-0-0-------------------------|
g---------2-2-0-------------------|
d---------------------------------|
a---------------------------------|
E---------------------------------|

And sorry for doublepost.

guest
You may want to rate the tab now too:
select rating
Wanna post a correction for this tab? Suggest correction