Oops, an error
Loading. Please wait.

Twinkle Twinkle Little Star Tab

version 1
version 1

Whole song

Interactive

600,456 views 1,257 this week
27 commentsread comments
1 2 3 4 5
x 406
add to favorites
launch autoscroll
font size
0
reset
how to read this tab
guitar tuner
Autoscroll
slow
fast
+/-
esc
set tempo
stop
Help us to improve Ultimate-Guitar.com Take our survey!
×
This is my first tab.This how I play it.So sorry if I mess up.If I do please comment.


   e|----------0-0--------------------------------------------------------0-0-|
   b|------3-3-----3--1-1-0-0--------3-3-1-1-0-0----3-3-1-1-0-0--------3-3---3|
   g|--0-0---------------------2-2-0--------------2--------------2-0-0--------|
   d|-------------------------------------------------------------------------|
   a|-------------------------------------------------------------------------|
   E|-------------------------------------------------------------------------|

   e|---------------------------------|
   b|-1-1-0-0-------------------------|
   g|---------2-2-0-------------------|
   d|---------------------------------|
   a|---------------------------------|
   E|---------------------------------|


THANKS FOR PLAYING MY TAB!!!!!!! Please rate high.
Suggest correction
comments
print report bad tab
27 comments total. Showing first comments. show 1 bad comment
+15 reply
Tammcnelis 52 Mar 30, 2009 11:55 AM

see where ur doing fret 3 2nd string
there should be two 3's

u do have 2 3's at the start but not near the end

+6 reply
ericnorcross 209 Nov 03, 2009 08:56 PM

I used this tab to teach my girlfrien dguitar... Mr. DylanDiego.

guest
You may want to rate the tab now too:
select rating
Wanna post a correction for this tab? Suggest correction