Oops, an error
Loading. Please wait.

Twinkle Twinkle Little Star Tab

version 3
version 3
9,256 views 6 this week
2 commentsread comments
1 2 3 4 5
accurate
x 10
add to favorites
launch autoscroll
font size
0
reset
how to read this tab
guitar tuner
Tab Pro tools
  • play this tab
  • loop segment
  • change instrument
  • show fretboard
  • metronome
×
Best way to learn
"Twinkle Twinkle Little Star"
Autoscroll
slow
fast
+/-
esc
set tempo
stop
Contributor
Difficulty
novice
-------------------------------------------------------------------------------
                            twinkle twinkle little star - misc childrens
-------------------------------------------------------------------------------
Tabbed by:metalhead601


Tuning: standard

e|--------------5---5---7---7---5------3---3---2---2---0---0-----------------|
B|------3---3--------------------------------------------------3-------------|
G|---------------------------------------------------------------------------|
D|---------------------------------------------------------------------------|
A|---------------------------------------------------------------------------|
E|---------------------------------------------------------------------------|

e|---5---5---3---3---2---2---0------5---5---3---3---2---2---0----------------|
B|---------------------------------------------------------------------------|
G|---------------------------------------------------------------------------|
D|---------------------------------------------------------------------------|
A|---------------------------------------------------------------------------|
E|---------------------------------------------------------------------------|

e|-----------5---5---7---7---5------3---3---2---2---0---0--------------------|
B|---3---3--------------------------------------------------3----------------|
G|---------------------------------------------------------------------------|
D|---------------------------------------------------------------------------|
A|---------------------------------------------------------------------------|
E|---------------------------------------------------------------------------|



i was bored and figured this out
comments
print report bad tab
2 comments total.
-1 reply
Dr.JoNes96 wrote on July 15 2015, 03:18 pm

Lack of accuracy. Clearly wrong. The first two tones are clearly wrong. It must be a "d", not an "e". So, change it to "d" (3 on the "B"-String), and it sounds good.

0 reply
metalhead601 wrote on July 30 2015, 06:38 pm, edited at 06:42 pm

Question bud, if you know how it should go than why look it up? Also why should one god damn note being wrong make it a one star rating? Fucking imbecile...

I want to post or [tab]
guest
You may want to rate the tab now too:
select rating
Please do not post tabs as comments. Select "correction" instead!