Oops, an error
Loading. Please wait.

Twinkle Twinkle Little Star Tab

version 9
version 9

Whole song

Interactive

1,322 views 12 this week
no commentswrite comment
1 2 3 4 5
x 4
add to favorites
launch autoscroll
font size
0
reset
how to read this tab
guitar tuner
Autoscroll
slow
fast
+/-
esc
set tempo
stop
Author
Difficulty
intermediate
----------------------------
Twinkle Twinkle Little Star
----------------------------
Arranged by David Y.
Key: G major
Guitar

^ - brush down

(Last notes of each measure are twice as long as other notes)
                                                             
E |--------------0--0----------|--------------2-------------|
B |--0-----3--3--1-----3-------|--1--1--0--0--1-----0-------|
G |--0--0--------0-----0-------|--0-----------2--2--0-------|
D |--0-----0-----------0-------|--2-----0-----------0-------|
A |--------------3-------------|--3-------------------------|
E |--3-----------------3-------|--------------2-------------|

                                                          
----------------------------|--------------------2-------|
--3--3--1--1--0--0----------|--3--3--1--1--0--0--1-------|
--0-----------0-----2-------|--0-----------0-----2-------|
--0-----2-----0-----2-------|--0-----2-----0-----0-------|
--------------------0-------|----------------------------|
--3-----------3-----2-------|--3-----------3-------------|

                             -Gradually Slow-    ^
--------------0--0----------|--0-----------2-----3-------|----||
--------3--3--1-----3-------|--1--1--0--0--1-----3-------|----||
--0--0--------0-----0-------|--0-----------2--2--0-------|----||
--0-----0-----------0-------|--------0-----------0-------|----||
--2-----------3-------------|--3-----------------2-------|----||
--3-----------------3-------|--------------2-----3-------|----||

Suggest correction
There is a new version of this tab from 3 days ago which you may like more. Go check it out:
comments
print report bad tab
guest
You may want to rate the tab now too:
select rating
Wanna post a correction for this tab? Suggest correction