Oops, an error
Loading. Please wait.

Twinkle Twinkle Little Star Tab

version 9
version 9

Whole song

Interactive

597 views 6 this week
no commentswrite comment
1 2 3 4 5
2 more votes to show rating
add to favorites
launch autoscroll
font size
0
reset
how to read this tab
guitar tuner
×
Best way to learn
"Twinkle Twinkle Little Star"
Autoscroll
slow
fast
+/-
esc
set tempo
stop
Difficulty
intermediate
Transcribed by Thomas Reid (2014)


E|-----------3-----------------3-----------------0-----------------3-----------------0--------|
B|-----0--------0--------3--------3--------1--------1--------0--------0--------1--------1-----|
G|--------0--------0--------0--------0--------0--------0--------0--------0--------0--------0--|
D|--------------------------------------------------------------------------------------------|
A|--------------------2-----------------3-----------------------------------3-----------------|
E|--3-----------------------------------------------------3-----------------------------------|
    Twinkle           twinkle           little            star.             How      I


E|-----------3-----------------2-----------------3-----------------3-----------------3--------|
B|-----0--------0--------3--------3--------0--------0--------3--------3--------1--------1-----|
G|--------0--------0--------2--------2--------0--------0--------0--------0--------0--------0--|
D|--------------------------------------------------------------------------------------------|
A|--------------------0-----------------------------------------------------3-----------------|
E|--3-----------------------------------3-----------------3-----------------------------------|
    wonder            what     you      are.              Up       a…       bove     the


E|-----------3-----------------2-----------------3-----------------3-----------------3--------|
B|-----0--------0--------3--------3--------3--------3--------1--------1--------0--------0-----|
G|--------0--------0--------2--------2--------0--------0--------0--------0--------0--------0--|
D|--------------------0-----------------------------------------------------------------------|
A|--2-----------------------------------------------------3-----------------2-----------------|
E|--------------------------------------3-----------------------------------------------------|
    world    so       high.             Like     a        diamond           in       the


E|-----------2-----------------3-----------------3-----------------0-----------------3--------|
B|-----3--------3--------0--------0--------3--------3--------1--------1--------3--------3-----|
G|--------2--------2--------0--------0--------0--------0--------0--------0--------0--------0--|
D|--0-----------------------------------------------------------------------------------------|
A|--------------------------------------2-----------------3-----------------2-----------------|
E|--------------------3-----------------------------------------------------------------------|
    sky.              Twinkle           twinkle           little            star.


E|-----------0-----------------3-----------------2-----------------3--------|
B|-----1--------1--------0--------0--------3--------3--------0--------0-----|
G|--------0--------0--------0--------0--------2--------2--------0--------0--|
D|--------------------------------------------------------------------------|
A|--3-----------------2-----------------0-----------------------------------|
E|--------------------------------------------------------3-----------------|
    How      I        wonder            what     you      are.
Suggest correction
Give kudos to tab author, rate the tab!
1 2 3 4 5
comments
print report bad tab
guest
You may want to rate the tab now too:
select rating
Wanna post a correction for this tab? Suggest correction