Oops, an error
Loading. Please wait.

A Holly Jolly Christmas Tab

version 2
version 2

Whole song

Interactive

15,982 views 636 this week
6 commentsread comments
1 2 3 4 5
x 10
add to favorites
launch autoscroll
font size
0
reset
how to read this tab
guitar tuner
Autoscroll
slow
fast
+/-
esc
set tempo
stop
Help us to improve Ultimate-Guitar.com Take our survey!
×
Author
Difficulty
novice
First tab.. Merry Christmas and enjoy :)

Holly Jolly Christmas

Have a holly jolly Christmas.. Its the best time of the year.. I dont know, if therell be snow..
||--0-------------------------|-------------------------------|--------------------------------|
||-----3--1--1--0--0----------|-------------------------------|--0--0--0-----------------------|
||---------------------2------|------0--2--2--0--0------------|-------------2--0--0--0---------|
||--------------------------2-|---2---------------------------|--------------------------------|
||----------------------------|-------------------------2-----|--------------------------------|
||----------------------------|-------------------------------|--------------------------------|

But have a cup of cheer... Have a holly jolly Christmas....... And when you walk down the street..
------------------------------|--0----------------------------|----------------------------|
------------------------------|------3--1--1--0--0------------|----------------------------|
---------0--------------------|-------------------------2-----|------0--2--2--0--0---------|
--3--4-----3--2---------------|----------------------------2--|--2-------------------------|
------------------------------|-------------------------------|-------------------------2--|
------------------------------|-------------------------------|----------------------------|

Say hello to friends you know.. And everyone you meet..
------------------------------|-------------------------------|
-0--0--0----------------------|-------------------------------|
------------2--0--0--0--------|------0--0---------------------|
------------------------------|--3---------3--0---------------|
------------------------------|---------------------3---------|
------------------------------|-------------------------------|

Ho! Ho! The mistletoe.. Hung where you can see.. Somebody waits for you...... Kiss here once for me!
--------------------|--------------------------|------------------------------|--------------------|
-1-----1--0--0------|--------------------------|------------------------------|--------------------|
----2-------------0-|--2---------2-------------|--------------2--2------------|-----------------0--|
--------------------|------3--3----------------|--3--0--3--2------------------|--0--0--3--4--------|
--------------------|--------------------------|------------------------------|--------------------|
--------------------|--------------------------|------------------------------|--------------------|

Have a holly jolly Christmas.. And in case you didnt hear...... Oh by golly have a holly jolly..
-0----------------------------|-------------------------------|-----------------------------------|
----3--1--1--0--0-------------|-------------------------------|--0--0--0------------------------1-|
------------------------2-----|------0--2--2--0--0------------|-------------2--0---------0---0----|
---------------2--------------|--2----------------------------|--------------------3--2-----------|
------------------------------|--------------------------2----|-----------------------------------|
------------------------------|-------------------------------|-----------------------------------|

Christmas, this year! .. Have a holly jolly Christmas.. Its the best time of the year..
--------------------|------------9--9--8--8---------|-------------------------------|-------------|
--3-------0----1----|-------9----------------11-----|-------9--11--9--9-------------|-------------|
------2-------------|--10-----------------------10--|-10----------------------------|-- rest for--|
--------------------|-------------------------------|---------------------0---------|-- 20 beats -|
--------------------|-------------------------------|-------------------------------|-------------|
--------------------|-------------------------------|-------------------------------|-------------|

Have a holly jolly Christmas.. And when you walk down the street..  Say hello to friends you know..
--1--------------------------|--------------------------------| --------------------------------|
----4--2--2--1--1------------|--------------------------------|--1--1--1------------------------|
-------------------3---------|------1--3--3--1--1-------------|--------------3--1--1--1---------|
-----------------------3-----|--3-----------------------------|---------------------------------|
-----------------------------|--------------------------3-----|---------------------------------|
-----------------------------|--------------------------------|---------------------------------|

And everyone you meet....... Ho! Ho! The mistletoe........ Hung where you can see..
----------------------------|-----------------------------|----------------------------------|
----------------------------|--2------2---1---1-----------|----------------------------------|
-----1--1-------------------|-----3-----------------1-----|--3----------3---1----------------|
--4---------4--1------------|-----------------------------|-----4--4-------------------------|
---------------------4------|-----------------------------|----------------------------------|
----------------------------|-----------------------------|----------------------------------|

Somebody waits for you...... Kiss her once for me! .... Have a holly jolly Christmas..
----------------------------|--------------------------|--1---------------------------------|
----------------------------|--------------------------|------4---2---2--1--1---------------|
----------------3----3------|---------------0---1------|----------------------------3-------|
--4---1---4---3-------------|--1---1---4---------------|---------------------------------3--|
----------------------------|--------------------------|------------------------------------|
----------------------------|--------------------------|------------------------------------|

And in case you didnt hear... Oh by golly have a holly jolly...... Christmas, this year!
----------------------------|------------------------------------1-|---------------------------||
----------------------------|--1--1--1-----------------------------|--4---------1------2-------||
------1---3---3--1---1------|--------------3--1-----------1--1-----|--------3------------------||
--3-------------------------|----------------------4---3-----------|---------------------------||
-------------------------3--|--------------------------------------|---------------------------||
----------------------------|--------------------------------------|---------------------------||
Suggest correction
comments
print report bad tab
6 comments total. Showing first comments.
-1 reply
UDontNoJacque 10 Feb 18, 2013 07:04 PM

Excellent tab! I had so much fun playing this tab.:D

0 reply
mango4411 41 Feb 18, 2013 10:57 PM

Thanks so much!

0 reply
bluesbro1985 10 Nov 11, 2013 08:01 AM

dont sound right

guest
You may want to rate the tab now too:
select rating
Wanna post a correction for this tab? Suggest correction