Oops, an error
Loading. Please wait.

All I Want For Christmas Is You Chords

version 1
version 1

Whole song

817,775 views 78 this week
10 commentsread comments
1 2 3 4 5
worth learning
x 56
add to favorites
launch autoscroll
font size
0
reset
transpose
0
reset
simplify chords
display chords
guitar tuner
Tab Pro tools
  • play this tab
  • loop segment
  • change instrument
  • show fretboard
  • metronome
×
Best way to learn
"All I Want For Christmas Is You"
Autoscroll
slow
fast
+/-
esc
set tempo
stop
Contributor
ALL I WANT FOR CHRISTMAS IS YOU   ( Mariah Carey )

Intro: ( carillon arranged for guitar )
             G
        e:-------------------------|-------------------------||
        B:-------------------------|-------------------------||
        G:-------------0-----------|----------0--------------||
        D:-------0--4-----4--2--0--|----0--2-----0-----------||
        A:----2--------------------|-3-----------------------||
        E:-3-----------------------|-------------------------||

 G
  I don't want a lot for Christmas
 G/B
  there is just one thing I need
 C
  I don't care about the presents
 Cm
  underneath the Christmas tree
  G       Bm       C/E     D
    I just want you for my own
    G        Bm         C/E     D
    more than you could ever know
   C
    Make my wish come true...
     C                 D          G  Em  C  D
    All I want for Christmas is you

  I don't want a lot for Christmas
  there is just one thing I need
  I don't care about the presents
  underneath the Christmas tree
  I don't need to hang my stocking
  there upon the fireplace
  Santa Claus won't make me happy
  with a toy on Christmas day

    I just want you for my own
    more than you could ever know
    Make my wish come true...
    All I want for Christmas is you, you, baby

  I won't ask for much this Christmas
  I won't even wish for snow
  I'm just gonna keep on waiting
  underneath the mistletoe
  I won't even make a list and send it
  to the North Pole for Saint Nick
  I won't even stay awake to
  hear those magic reindeer click

    'Cause I just want you here tonight
    holding on to me so tight
    What more can I do, baby
    All I want for Christmas is you, you

  B                          G
  All the lights are shining so brightly everywhere
  B                         G
  And the sound of children laughter fills the air
  Cm                     G              Em
  and everyone is singing  I hear those sleigh bells swinging
  C
  Santa won't you bring me the one I really need
            D
  won't you please bring my baby to me

  Oh I don't want a lot for Christmas
  this is all I'm asking for
  I just want to see baby
  standing right outside my door

    Oh I just want him for my own
    more than you could ever know
    Make my wish come true,
    all I want for Christmas is you...
    all I want for Christmas is you...
comments
print report bad tab
10 comments total. Showing first comments.
+1 reply
Frostwolf wrote on December 24 2006, 01:46 pm

i found another way to play the intro.. maybe this might be more to everyones liking?

e:-------------------------|-------------------------||
B:-------------------------|-------------------------||
G:-------------0-----------|----------0--------------||
D:-------0--4-----4--0-----|----0--2-----4-----------||
A:----2-----------------2--|-3-----------------------||
E:-3-----------------------|-------------------------||

0 reply
maori101 wrote on November 21 2008, 06:08 pm

e|----------14-15-14-------------12-15-14~----|
B|----12-15----------15-12----13--------------|
G|--12---------------------14-----------------|
D|--------------------------------------------|
A|--------------------------------------------|
E|--------------------------------------------|

that intro there sounds the best??
got it from the my chemical romance one,
but still real good:) 5 star, cause the intros still sweet.

0 reply
elljell10 wrote on November 19 2011, 12:46 pm

How is everyone playing G/B?

I want to post or [tab]
guest
You may want to rate the tab now too:
select rating
Please do not post tabs as comments. Select "correction" instead!