Oops, an error
Loading. Please wait.

Angels We Have Heard On High tab

version 4
version 4

Whole song

  • Lower case for the high "e".
  • It is a very simple tab that can be played easily ... Show more

Interactive

535 views 6 this week
1 commentread comment
1 2 3 4 5
x 10
add to favorites
×
Save as Personal and add changes to this tab that will be seen only by you. Learn more ›
×
You can save this tab as Personal to edit and correct it or add notes. All changes will be seen only by you. Learn more »
launch autoscroll
font size
0
reset
how to read this tab
guitar tuner
edit
Autoscroll
slow
fast
+/-
esc
set tempo
stop
Author
Difficulty
About this tab version
It is a very simple tab that can be played easily by beginners. Also, it is finger style, not flat picking. Was this info helpful? Yes No
Here is a very simple version of the Christmas song, Angels We Have Heard On High.


|---------------------------------------------------------------------------------------|
|--0----0-0---3-3----1-----0----0----------0----3----0----------------------------------|
|-------------------------------------2-------------------2----0------------------------|   
|---------------0------------------------------------0----------------------------------|
|---------------------------------------------------------------------------------------|
|--3------3----------------3----3----------3-------------------3------------------------|

|---------------------------------------------------------------------------------------|
|--0----0-0---3-3----1-----0----0----------0----3----0----------------------------------|
|-------------------------------------2-------------------2----0------------------------|   
|---------------0------------------------------------0----------------------------------|
|---------------------------------------------------------------------------------------|
|--3------3----------------3----3----------3-------------------3------------------------|

|-------0------------------------------------------------------------------------------|
|--3---------3-1---0----1----3---1----0-------0----1---0-------------------------------|
|-----------------------------------------2----------------2----0----2-----------------|
|----------------------------0---------------------------------------0-0-0-------------|
|------------------------0-------------------------3-------0---------------------------|
|--3----0-------------------------------------3----------------------------------------|

|------------------------------|
|----------0---1---0-----------|
|--0---2---------------2-------|
|----------------------0-------|
|------------------------------|
|--3-------3-------3-----------|

|-------0------------------------------------------------------------------------------|
|--3---------3-1---0----1----3---1----0-------0----1---0-------------------------------|
|-----------------------------------------2----------------2----0----2-----------------|
|----------------------------0---------------------------------------0-0-0-------------|
|------------------------0-------------------------3-------0---------------------------|
|--3----0-------------------------------------3----------------------------------------|

|-------------------------------------|
|----------0---1----0-----------------|
|--0---2-----------------2---0---0----|
|------------------------0------------|
|-------------------------------------|
|--3-------3--------3------------3----|

Merry Christmas!!!

            
            
Suggest correction
Creating personal tab
Creating personal tab
You can edit any tab online and save it as your Personal.

You can edit, replace or remove any tab part or add personal notes – all changes will be seen only by you.

Personal tabs can be accessed anytime from any device, even offline.
Learn more »
comments
print report bad tab
1 comment total.
0 reply
CARSONDGUITAR 10 Dec 13, 2016 11:58 AM

Yo, the best tab of this song ever!!!
Please post more like this.

guest
You may want to rate the tab now too:
select rating
Wanna post a correction for this tab? Suggest correction