Oops, an error
Loading. Please wait.

Away In A Manger Tab

version 9
version 9

Whole song

Interactive

97 views 15 this week
no commentswrite comment
1 2 3 4 5
1 last vote to show rating
add to favorites
launch autoscroll
font size
0
reset
how to read this tab
guitar tuner
Autoscroll
slow
fast
+/-
esc
set tempo
stop
Help us to improve Ultimate-Guitar.com Take our survey!
×
Author
Difficulty
About this tab version
This is an intermediate version of this song. It's pretty basic, but it has a strong bass. Was this info helpful? Yes No
                        Away in a Manger
                  Key of F - Standard Tuning
                             ---

e|---------------------------------------------------------------|
B|---1---1-------------------------------------------------------|
G|-----------3---2---2---0---------------------------------------|
D|-----------------------------3---3---2---0---------------------|
A|---------------------------------1-----------3-----------------|
E|-------1-----------1-------------------------1-----------------|

e|---------------------------------------------------------------|
B|---------------------------------------------------------------|
G|-----------------------0-------------------2-------------------|
D|-----------0---------------2---0-------3-----------------------|
A|---3---3-------3---3-------3-------3-------3---0---------------|
E|-------3-----------3-------------------------------1-----------|

e|---------------------------------------------------------------|
B|---1---1-------------------------------------------------------|
G|-----------3---2---2---0---------------------------------------|
D|-----------------------------3---3---2---0---------------------|
A|---------------------------------1-----------3-----------------|
E|-------1-----------1-------------------------1-----------------|

e|---------------------------------------------------------------|
B|---------------------------------------------------------------|
G|-------3---2---0---2---0-------0-------------------------------|
D|---------------------------3-------0---2---3-------------------|
A|---3---3-----------------------3-------------------------------|
E|-------------------1-----------------------1-------------------|
Suggest correction
Give kudos to tab author, rate the tab!
1 2 3 4 5
comments
print report bad tab
guest
You may want to rate the tab now too:
select rating
Wanna post a correction for this tab? Suggest correction