Oops, an error
Loading. Please wait.

Away In The Manger Tab

version 1
version 1

Whole song

Interactive

7,331 views 6 this week
no commentswrite comment
1 2 3 4 5
please rate
add to favorites
launch autoscroll
font size
0
reset
how to read this tab
guitar tuner
Autoscroll
slow
fast
+/-
esc
set tempo
stop
Help us to improve Ultimate-Guitar.com Take our survey!
×
Author
Away in the Manger - Christmas Tradional


Here is an easy fingerpicking song that you can play around the table
during Christmas time.

Away in the Manger  - Tabbed by LennonsDisciple
Any questions? nhanngo123@gmail.com
Check me out on youtube - LennonsDisciple(A humble and modest Vietnamese Genius.
and The most accurate amateur tabber on earth)


[Verse 1]

  [C]
 A- way   in  a       manger    No      crib    for    a

E|------0-----------0------0-----------0-----0-----------0--------------------------|
B|---------1-----1------------1-----1-----------1-----1-----------------------------|
G|------------0------------------0-----------------0--------------------------------|
D|----------------------------------------2-----------------------------------------|
A|--3------------------3------------------------------------------------------------|
E|----------------------------------------------------------------------------------|


   [F]
   bed                    The little

E|------1-----------1------1-----------1--------------------------------------------|
B|---------1-----1------------1-----1-----------------------------------------------|
G|------------2------------------2--------------------------------------------------|
D|--3-------------------3-----------------------------------------------------------|
A|----------------------------------------------------------------------------------|
E|----------------------------------------------------------------------------------|


   [C]                    [G7]
    Lord Jesus         Lay    down  his sweet head

E|------0-----------0------1-----------1-----1-----------1--------------------------|
B|---------1-----1------------0-----0-----------0-----0-----------------------------|
G|------------0------------------0-----------------0--------------------------------|
D|----------------------------------------------------------------------------------|
A|--3-------------------------------------------------------------------------------|
E|---------------------3------------------3-----------------------------------------|

    [C]

The stars     in the   bright sky    Looked down where he

E|------0-----------0------0-----------0-----0-----------0----------------------------|
B|---------1-----1------------1-----1-----------1-----1-------------------------------|
G|------------0------------------0-----------------0----------------------------------|
D|----------------------------------------2-------------------------------------------|
A|---3------------------3-------------------------------------------------------------|
E|------------------------------------------------------------------------------------|


   [F]
   lay                    The little

E|------1-----------1------1-----------1--------------------------------------------|
B|---------1-----1------------1-----1-----------------------------------------------|
G|------------2------------------2--------------------------------------------------|
D|--3-------------------3-----------------------------------------------------------|
A|----------------------------------------------------------------------------------|
E|----------------------------------------------------------------------------------|

   [C]                [G7]
    Lord Jesus         Asleep  in the    hay

E|------0-----------0------1-----------1-----1-----------1--------------------------|
B|---------1-----1------------0-----0-----------0-----0-----------------------------|
G|------------0------------------0-----------------0--------------------------------|
D|----------------------------------------------------------------------------------|
A|--3-------------------------------------------------------------------------------|
E|---------------------3------------------3-----------------------------------------|


Repeat from [Verse 1] for the rest of the song
Suggest correction
What's this?
You can suggest a correction to this tab. Community and Mods will review your correction and vote to approve or reject it.
comments
We did not receive enough feedback on this tab! Please rate:
print report bad tab
1 2 3 4 5
guest
You may want to rate the tab now too:
select rating
Please do not post tabs as comments. Select "correction" instead!