Oops, an error
Loading. Please wait.

Carol Of Bells Tab

23,848 views 7 this week
no commentswrite comment
1 2 3 4 5
accurate
x 3
add to favorites
launch autoscroll
font size
0
reset
how to read this tab
guitar tuner
Autoscroll
slow
fast
+/-
esc
set tempo
stop
Help us to improve Ultimate-Guitar.com Take our survey!
×
Difficulty
novice
Carol Of Bells


e|----------|------------------------------------------------------------|
B|-----8--7-|-----------------------12-12-10--------------------(10)(12--|
G|---9------|---------------------9-9----------12-11-9---9(11)(12)-------|
D|-9--------|-----------------------------------------12-----------------|
A|----------|------------------------------------------------------------|
E|----------|------------------------------------------------------------|

e|----------------------------------------------------------------------|
B|--------------------------------12-12---10----------------------------|
G|--9~~~---------------------9-9-------------12-11-9--------------------|
D|--9~~~----------------------------------------------------------------|
A|--7~~~----------------------------------------------------------------|
E|----------------------------------------------------------------------|

e|----------------------------------------------------------------------|
B|-8-7h8-----------------12-10h12---------------------------------------|
G|-------9---4 times--------------12---4 times--------------------------|
D|----------------------------------------------------------------------|
A|----------------------------------------------------------------------|
E|----------------------------------------------------------------------|

e|--12--12-12-10--------------------------------------------------------|
B|---------------13-13--12-12-10----10--10-10-12-10-10------------------|
G|-------------------------------12--------------------9-9-9------------|
D|----------------------------------------------------------------------|
A|----------------------------------------------------------------------|
E|----------------------------------------------------------------------|

e|----------------------------------------------------------------------|
B|-----------------10-12-10---------------------------------------------|
G|---------9-11-12----------12------------------------------------------|
D|-9-11-12------------------------2 times-------------------------------|
A|----------------------------------------------------------------------|
E|----------------------------------------------------------------------|

e|-----------------------------------------------------------------12~~-|
B|----------------------------------------------------------------------|
G|---------9-11-12---------9-11-12---------9-11-12---------9-11-12------|
D|-9-11-12---------9-11-12---------9-11-12---------9-11-12--------------|
A|----------------------------------------------------------------------|
E|----------------------------------------------------------------------|

e|---12-12-10-----------------------------------------------------------|
B|------------13-13-12-10-12-10-----------------------------------------|
G|------------------------------12-12-11-9-9----------------------------|
D|----------------------------------------------------------------------|
A|----------------------------------------------------------------------|
E|----------------------------------------------------------------------|

e|----------------------------------------------------------------------|
B|------------------------------12-12--10-------------------------------|
G|-------------------------9-9------------12-11-9-----------------------|
D|------------------------------------------------12--------------------|
A|----------------------------------------------------------------------|
E|----------------------------------------------------------------------|


e|-12~~----10~~~--------------------12~~----10~~------------------------|
B|----------------13~~~/12~~~~--------------------13~~/12~~-------------|
G|----------------------------------------------------------------------|
D|----------------------------------------------------------------------|
A|----------------------------------------------------------------------|
E|----------------------------------------------------------------------|

e|-12--12-12-10---------------------------------------------------------|
B|-------------13-12--12-12-10----10--10-10-12-10-10--------------------|
G|-----------------------------12--------------------9-9-9--------------|
D|----------------------------------------------------------------------|
A|----------------------------------------------------------------------|
E|----------------------------------------------------------------------|


e|----------------------------------------------------------------------|
B|-----------------10-12-10---------------------------------------------|
G|---------9-11-12----------12------------------------------------------|
D|-9-11-12--------------------------------------------------------------|
A|----------------------------------------------------------------------|
E|----------------------------------------------------------------------|

e|-15-14-15-(12)x3|--15\12~~--14~~--15/17~~-----------------------------|
B|-----------17---|-----------------------------------------------------|
G|----------------|-----------------------------------------------------|
D|----------------|-----------------------------------------------------|
A|----------------|-----------------------------------------------------|
E|----------------|-----------------------------------------------------|

e|-12--12-12-10---------------------------------------------------------|
B|--------------13-12--12-12-10----10--10-10-12-10-10-------------------|
G|------------------------------12--------------------9-9-9-------------|
D|----------------------------------------------------------------------|
A|----------------------------------------------------------------------|
E|----------------------------------------------------------------------|

e|----------------------------------------------------------------------|
B|-----------------10-12-10---------------------------------------------|
G|---------9-11-12----------12------------------------------------------|
D|-9-11-12------------------------2 times-------------------------------|
A|----------------------------------------------------------------------|
E|----------------------------------------------------------------------|

e|----------------------------------------------------------------------|
B|----------------------------------------------------------------------|
G|---------9-11-12---------9-11-12---------9-11-12---------9-11-12------|
D|-9-11-12---------9-11-12---------9-11-12---------9-11-12--------------|
A|----------------------------------------------------------------------|
E|----------------------------------------------------------------------|


e|-12~~-12~~-12~~-12~~-12~~-12~~-12~~-12~~--|-15-14-15-----x3--15-14-15-|
B|------------------------------------------|----------17---------------|
G|------------------------------------------|---------------------------|
D|------------------------------------------|---------------------------|
A|------------------------------------------|---------------------------|
E|------------------------------------------|---------------------------|


e|-------------------------|----12~~-------14~~-----15~~-----17~~---12~~-|
B|-------------------------|---------------------------------------------|
G|-9-----------------------|---------------------------------------------|
D|-9-----------------------|---------------------------------------------|
A|-7-----------------------|---------------------------------------------|
E|-------------------------|---------------------------------------------|
comments
We did not receive enough feedback on this tab! Please rate:
print report bad tab
1 2 3 4 5
I want to post or [tab]
guest
You may want to rate the tab now too:
select rating
Please do not post tabs as comments. Select "correction" instead!