Oops, an error
Loading. Please wait.

Carol Of The Bells Bass

version 1
version 1

Whole song

19,496 views 6 this week
no commentswrite comment
1 2 3 4 5
x 7
add to favorites
launch autoscroll
font size
0
reset
guitar tuner
×
Best way to learn
"Carol Of The Bells"
Autoscroll
slow
fast
+/-
esc
set tempo
stop
Author
Difficulty
  follow
intermediate
G|-15--14-15-12--15--14-15-12--|
D|-----------------------------|x14
A|-----------------------------|x14
E|-----------------------------|

|-19--18-19-16--19--18-19-16--|
|-----------------------------|x6
|-----------------------------|x6
|-----------------------------|

|-15--14-15-12--15--14-15-12--|
|-----------------------------|x6
|-----------------------------|x6
|-----------------------------|

|-------------------------------------------------------------|
|-19--19-19-17-15---------------------------------------------|x1
|-----------------19--19-19-17-15-17--17-17-19-15-12--12--12--|x1
|-------------------------------------------------------------|

|----------2h3-5h7p5-3-|
|-----4h5--------------|x2
|-5h7------------------|x2
|----------------------|

|-15--14-15-12--15--14-15-12--|
|-----------------------------|x6
|-----------------------------|x6
|-----------------------------|
(on the last one get slower and make a big ending)

Well hope ya like it and have a happy holiday!
Suggest correction
comments
print report bad tab
guest
You may want to rate the tab now too:
select rating
Wanna post a correction for this tab? Suggest correction