Oops, an error
Loading. Please wait.

Carol Of The Bells Bass Tab

version 2
version 2

Whole song

8,058 views 1 this week
no commentswrite comment
1 2 3 4 5
please rate
add to favorites
launch autoscroll
font size
0
reset
guitar tuner
Autoscroll
slow
fast
+/-
esc
set tempo
stop
Help us to improve Ultimate-Guitar.com Take our survey!
×
Author
This is what bass would play along with a guitar if you might (possibly) be playing with a guitar.

G |------------------------|
D |------------------------|
A |------------------------|
E |5~----3~----1~----0~----| 4x

G |------------------------|
D |7~----------------------|
A |------7~----5~----------|
E |------------------8--555| 2x

G |------------------------|
D |------575~--------575~--|
A |---578----8~---578----8~|
E |578---------578---------| 2x

those are basically the three parts to the song. mix and match as you like. 


ENDING
G |--------------------------------|
D |10---9-10-----7~~~--------------|
A |--------------------------------|
E |--------------------------5~~~~~|

really hit that low A, makes it sounds coo.
Suggest correction
Give kudos to tab author, rate the tab!
1 2 3 4 5
comments
print report bad tab
guest
You may want to rate the tab now too:
select rating
Wanna post a correction for this tab? Suggest correction