Oops, an error
Loading. Please wait.

Carol Of The Bells Tab

version 6
14,426 views 36 this week
no commentswrite comment
1 2 3 4 5
x 3
add to favorites
launch autoscroll
font size
0
reset
how to read this tab
guitar tuner
Autoscroll
slow
fast
+/-
esc
set tempo
stop
Help us to improve Ultimate-Guitar.com Take our survey!
×
this is my metal reindition-
enjoy
heavier the distortion the better


|------------------------|x2
|------------------------|
|15-14-15-12-15-14-15-12-|
|------------------------|
|------------------------|
|------------------------|

here,2 guitarists can either harmonize
or play higher(below)

|------------------------|x2
|------------------------|
|17-15-17-14-17-15-17-14-|
|------------------------|
|------------------------|
|------------------------|

|-----------------------------------|
|-----------------------------------|
|15--15-15-14-12--------------------|
|----------------15--15-15-14-12-14-|
|-----------------------------------|
|-----------------------------------|
                 | |here a quick wah harmonic bend(with pedal) sounds nice
|--------------------|
|--------------------|
|--------------------|
|-14-15-14-12-12-12*-|
|--------------------|
|--------------------|

this next part can be played one of 2 ways:
1:
|---------------------------|x2
|---------------------------|
|---------12-14-15-14-12-12-|
|12-14-15-------------------|
|---------------------------|
|---------------------------|

or
2:
|-----------------------------------------------|x2
|-----------------------------------------------|
|----------------------------h12h14h15-15-14-14-|
|------------------h12h14h15--------------------|
|---------h12h14h15-----------------------------|
|h12h14h15--------------------------------------|
pm.............................................

for the section above move your hand above the neck like a finger board and run your 
down it or just pick the notes real fast

now either go back to the beginning or
this:

|----------------|x4
|----------------|
|15-14-15-12*v~~-|
|----------------|
|----------------|
|----------------|

|----------------|x4
|----------------|
|17-15-17-14*v~~-|
|----------------|
|----------------|
|----------------|

then play back through the solo thing
then

|----------------|x4
|----------------|
|15-14-15-12*v~~-|
|----------------|
|----------------|
|----------------|

|----------------|x4
|----------------|
|17-15-17-14*v~~-|
|----------------|and progressively slower
|----------------|
|----------------|

in some ears thing sounds terrible
in mine it sounds good, if it doesnt sound good, change keys..
move to lower frets etc. on the neck
enjoy
Suggest correction
Give kudos to tab author, rate the tab!
1 2 3 4 5
comments
print report bad tab
guest
You may want to rate the tab now too:
select rating
Wanna post a correction for this tab? Suggest correction