Oops, an error
Loading. Please wait.

Carol Of The Bells Tab

version 7
3,476 views 6 this week
no commentswrite comment
1 2 3 4 5
please rate
add to favorites
launch autoscroll
font size
0
reset
how to read this tab
guitar tuner
Autoscroll
slow
fast
+/-
esc
set tempo
stop
Help us to improve Ultimate-Guitar.com Take our survey!
×
Author
Carol of the Bells
Tuning: Standard / Drop anything

Note: I worked out this song without actually listening to it first, and my guitar was 
out of tune.  If any notes are wrong,
please let me know.  Also, I didn't include an ending, so at the end, you can jump back 
the beginning or some other part (or just
end it yourself).  Have fun!

|----------------------------------------|
|----------------------------------------|
|----------------------------------------|
|--8-7-8-5--8-7-8-5--8-7-8-5--8-7-8-5----|
|----------------------------------------|
|----------------------------------------|


|---------------------------------------------------|
|---------------------------------------------------|
|---------------------------------------------------|
|-12-10-12-8--12-10-12-8--12-10-12-8--12-10-12-8----|
|---------------------------------------------------|
|---------------------------------------------------|


|-------------------------------------------------------|
|-------------------------------------------------------|
|-12-12-12-10-8-----------------------------------------|
|---------------12-12-12-10-8-10-10-10-12-10-5-5-5-5----|
|-------------------------------------------------------|
|-------------------------------------------------------|


|---------------------------------------------|
|---------------3--------------------3--------|
|-------0-2-3-5---5-3--------0-2-3-5---5-3----|
|-0-2-4----------------0-2-4------------------|
|---------------------------------------------|
|---------------------------------------------|


|-----------------------------------------0-2----|
|---------------------------------------3--------|
|-------0-2-3-------0-2-3-------0-2-3-5----------|
|-0-2-4-------0-2-4-------0-2-4------------------|
|------------------------------------------------|
|------------------------------------------------|


|-15-13-11-10--15-13-11-10----|
|-----------------------------|
|-----------------------------|
|-----------------------------|
|-----------------------------|
|-----------------------------|
Suggest correction
Give kudos to tab author, rate the tab!
1 2 3 4 5
comments
print report bad tab
guest
You may want to rate the tab now too:
select rating
Please do not post tabs as comments. Select "correction" instead!