Oops, an error
Loading. Please wait.

Do You Hear What I Hear tab

21,879 views 3 this week
1 commentread comment
1 2 3 4 5
x 35
add to favorites
×
Save as Personal and add changes to this tab that will be seen only by you. Learn more ›
×
You can save this tab as Personal to edit and correct it or add notes. All changes will be seen only by you. Learn more »
launch autoscroll
font size
0
reset
how to read this tab
guitar tuner
edit
Autoscroll
slow
fast
+/-
esc
set tempo
stop
----------------------------------------------------------------------------
             Do You Hear What I Hear? – (Christmas)
----------------------------------------------------------------------------

Tabbed by:  Christmas Guy


Tuning: Standard

e|-----------------------------|          |-------------------------------|
B|-----------------------------|          |--------------3----------------|
G|-----------------------------|          |--------2--2-----2---(Echo)---.|
D|--0--2--4--4--4--4--2--2--4--|          |--0--0------------------------.|
A|-----------------------------|          |-------------------------------|
E|-----------------------------|          |-------------------------------|
  Said the night wind to the little lamb:  Do you see what I see? (echo)

e|-----------------------------|          |-------------------------------|
B|-----------------------------|          |--------------3----------------|
G|-----------------------------|          |--------2--2-----2---(Echo)---.|
D|--4--4--4--4--4--2--2--4-----|          |--0--0------------------------.|
A|-----------------------------|          |-------------------------------|
E|-----------------------------|          |-------------------------------|
   Way up in the sky, little lamb?          Do you see what I see? (echo)

e|-----------------------------|          |---------------------------|
B|-----------------------------|          |---------------------------|
G|--2--4--------2--4--2--0-----|          |---------------------------|
D|--------4--4--------------4--|          |--4--2--0--0--2--0--2--4---|
A|-----------------------------|          |---------------------------|
E|-----------------------------|          |---------------------------|
    A star, a star, dancing in the night, with a tail as big as a kite's?

e|---------------------------|
B|---------------------------|
G|--------------0------------|
D|--4--2--0--0-----4--2--0---|
A|---------------------------|
E|---------------------------|
    With a tail as big as a kite's?

Repeat for all verses

VERSE 2
Said the little lamb to the shepherd boy,
do you hear what I hear
Ringing through the sky, shepherd boy,
do you hear what I hear
A song, a song, high above the trees
With a voice as big as the sea
With a voice as big as the sea

VERSE 3
Said the shepherd boy to the mighty king,
do you know what I know
In your palace warm, mighty king,
do you know what I know
A Child, a Child shivers in the cold
Let us bring Him silver and gold
Let us bring Him silver and gold

VERSE 4
Said the king to the people everywhere,
listen to what I say
Pray for peace, people everywhere!
listen to what I say
The Child, the Child, sleeping in the night
He will bring us goodness and light
He will bring us goodness and light

Merry Christmas!

            
            
Suggest correction
Creating personal tab
Creating personal tab
You can edit any tab online and save it as your Personal.

You can edit, replace or remove any tab part or add personal notes – all changes will be seen only by you.

Personal tabs can be accessed anytime from any device, even offline.
Learn more »
comments
print report bad tab
1 comment total.
0 reply
baseballjack4 10 Dec 14, 2013 12:18 PM

this is GREAT!

guest
You may want to rate the tab now too:
select rating
Wanna post a correction for this tab? Suggest correction