Oops, an error
Loading. Please wait.

Frosty The Snowman Tab

version 6
version 6

Whole song

Interactive

79 views 79 this week
no commentswrite comment
1 2 3 4 5
3 more votes to show rating
add to favorites
launch autoscroll
font size
0
reset
how to read this tab
guitar tuner
Autoscroll
slow
fast
+/-
esc
set tempo
stop
Help us to improve Ultimate-Guitar.com Take our survey!
×
Author
FROSTY the SNOWMAN [Chorus]Arr by: Tommy Cox 2016

e|------------------------|----------3--------2h--3-|-----5--3---2----0-|------------------2h--3---|
B|----3------0--------2---|-----3-------------------|-------------------|-----3-------0------------|
G|------------------------|-------------------------|-------------------|--------------------------|
D|-------0-------0--------|----------0--------0-----|------------0------|---------0--------0-------|
A|------------------------|-------------------------|-----3-------------|--------------------------|
E|----3------3------------|-----3---------3---------|-------------------|-----3-------3------------|

e|---5---3---2--0-|--------3-------------|----------------|-----------3------------------|
B|----------------|----3-------0---3h--5-|--3---1--0------|---0--------------------------|
G|----------------|----------------------|-------------2--|------------------------------|
D|-----------0----|----------------------|--0-------------|-----------0------------------|
A|---3------------|----2-----------------|----------------|------------------------------|
E|----------------|------------3---------|---------2------|---3--------------------------|

************************************

| h  Hammer-on

************************************
Suggest correction
Give kudos to tab author, rate the tab!
1 2 3 4 5
comments
print report bad tab
guest
You may want to rate the tab now too:
select rating
Wanna post a correction for this tab? Suggest correction