Oops, an error
Loading. Please wait.

God Rest Ye Merry Gentlemen bass

version 1
version 1

Whole song

4,053 views 9 this week
2 commentsread comments
1 2 3 4 5
x 4
add to favorites
×
Save as Personal and add changes to this tab that will be seen only by you. Learn more ›
×
You can save this tab as Personal to edit and correct it or add notes. All changes will be seen only by you. Learn more »
launch autoscroll
font size
0
reset
guitar tuner
edit
Autoscroll
slow
fast
+/-
esc
set tempo
stop
Author
Unregistered
   E E  E  E  E  E  E  E  E  E  E  E  E  H  E  E  E  E  E  E  E  E  E  E  E  E
G|---------------------------------------------------------------------------------|
D|------7--7--5-----------------------5--7--------7--7--5--------------------------|
A|-0h5-----------8--7--5-----5--7--8--------5--5-----------8--7--5-----5--7--8-----|
E|------------------------8-----------------------------------------8--------------|


   E  H  E  E  E  E  E  E  E  E  E  E  E  E  E  Q  E  E  Q  E  E  E  E  E  E  E
G|----------------------5--7-------------------------------------------------------|
D|-5--7--7--8--5--7--8--------7--5--------------5-----5--7--8--7--7--5-------------|
A|----------------------------------8--5--7--8-----8--------------------8--7--5----|
E|---------------------------------------------------------------------------------|

   |--3--|
   E  E  E  Q  E  E  E  E  E  E  E  E  E  E  E
G|-------------------------5--7----------------------------------------------------|
D|----------5-----5--7--8--------7--5----------------------------------------------|
A|-8--7--5-----8-----------------------8--7--5-------------------------------------|
E|---------------------------------------------------------------------------------|


************************************

| H   Half note
| Q   Quarter note
| E   Eighth note
| h   Hammer-on

************************************
Suggest correction
Creating personal tab
Creating personal tab
You can edit any tab online and save it as your Personal.

You can edit, replace or remove any tab part or add personal notes – all changes will be seen only by you.

Personal tabs can be accessed anytime from any device, even offline.
Learn more »
comments
print report bad tab
2 comments total.
0 reply
atc228 50 Jun 22, 2004 08:00 PM

im hungry now

0 reply
kornflipsk8er 130 Feb 05, 2007 10:02 PM

lol.me too.good practice though.

guest
Wanna post a correction for this tab? Suggest correction