Oops, an error
Loading. Please wait.

God Rest Ye Merry Gentlemen Tab

version 4
version 4

Whole song

7,195 views 18 this week
no commentswrite comment
1 2 3 4 5
1 last vote to show rating
add to favorites
launch autoscroll
font size
0
reset
how to read this tab
guitar tuner
×
Best way to learn
"God Rest Ye Merry Gentlemen"
Autoscroll
slow
fast
+/-
esc
set tempo
stop
Author
Tuning
E A D G B E
----------------------------------------------------------------------------
                God Rest Ye Merry Gentlemen - Misc Christmas
----------------------------------------------------------------------------
Tabbed by: J Boy Shyne  
Email: jboyshyne@yahoo.com
Tuning: Standard Key of Am
Note:  Here's a simple finger style arrangement. In 4/4 time.  The first part is
basically 2 note voicings and then it switches to 3 note voicings


  E7           G   Am      Em        C      Am       Am       C      
e|-0--------------|-----0---0------|----------------|----------------|
B|-0--------------|-------------3--|-1---0----------|-----0---1---3--|
G|-1-----------0--|-2---2---2------|---------2---0--|-2--------------|
D|-0--------------|-------------3--|-2---0----------|-----0---2---3--|
A|-2--------------|-0--------------|---------0------|-0--------------|
E|-0-----------3--|----------------|-------------3--|----------------|

   E7          G   Am      Em        C      Am       Am       C
e|-0--------------|-----0---0------|----------------|----------------|
B|-0--------------|-------------3--|-1---0----------|-----0---1---3--|
G|-1-----------0--|-2---2---2------|---------2---0--|-2--------------|
D|-0--------------|-------------3--|-2---0----------|-----0---2---3--|
A|-2--------------|-0--------------|---------0------|-0--------------|
E|-0-----------3--|----------------|-------------3--|----------------|

   E7               F      Em        G      Em       Am      Em
e|-0-----------0--|-1-------0---1--|-3---5---0------|----------------|
B|-0--------------|-----3----------|-------------3--|-1-------0---1--|
G|-1--------------|-2-------0---2--|-4---5---0------|-----2----------|
D|-0--------------|-----3----------|-------------3--|-2-------0---2--|
A|-2--------------|----------------|----------------|-----0----------|
E|-0--------------|----------------|----------------|----------------|

  Dm      Am        C      Dm       Em       C       Am       C      
e|----------------|-0-------1---0--|-0--------------|----------------|
B|-3-------1---3--|----------------|-----3---1---0--|---------1P0----|
G|----------------|-0-------2---0--|-0--------------|-2-----------2--|
D|-3-------2---3--|----------------|-----3---2---0--|---------2------|
A|----------------|----------------|----------------|-0-----------0--|
E|----------------|----------------|----------------|----------------|

  Dm      Am        C       G       Em       C       Am 
e|----------------|-0---1---3---5--|-0--------------|---------0---3--|
B|-3-------1---3--|----------------|-----3---1---0--|-------1--------|
G|----------------|-0---2---4---5--|-0--------------|-----2----------|
D|-3-------2---3--|----------------|-----3---2---0--|---2------------|
A|----------------|----------------|----------------|-0--------------|
E|----------------|----------------|----------------|----------------|

  Am7         Am   Am   Am  Em  Dm   C  Em  Am   G   Am  Em   C   Dm
e|-5-----------5--|-5---12--12--10-|-8---7---5---3--|-5---7---8---10-|
B|-5-----------5--|-5---13--12--10-|-8---8---5---3--|-5---8---8---10-|
G|-5-----------5--|-5---14--12--10-|-9---9---5---2--|-5---9---9---10-|
D|-5--------------|----------------|----------------|----------------|
A|-7--------------|-0--------------|-0--------------|-0--------------|
E|-5--------------|----------------|----------------|----------------|

   Am         Am   Am   Am  Em  Dm   C  Em  Am   G   Am  Em   C   Dm   
e|-12----------5--|-5---12--12--10-|-8---7---5---3--|-5---7---8---10-|
B|-13----------5--|-5---13--12--10-|-8---8---5---3--|-5---8---8---10-|
G|-14----------5--|-5---14--12--10-|-9---9---5---2--|-5---9---9---10-|
D|-14-------------|----------------|----------------|----------------|
A|-0--------------|-0--------------|-0--------------|-0--------------|
E|----------------|----------------|----------------|----------------|

   Am          Am   F   Dm  Em  F    G   Am  Em  Dm   C  Am  Em   C
e|-12----------12-|-13--10--12--13-|-15--17--12--10-|-8---5---7---8--|
B|-13----------13-|-13--10--12--13-|-15--17--12--10-|-8---5---8---8--|
G|-14----------14-|-14--10--12—-14-|-12--17--12--10-|-9---5---9---9--|
D|-14-------------|----------------|----------------|----------------|
A|-0--------------|----------------|----------------|----------------|
E|----------------|-13-------------|----------------|----------------|

   Dm      C   Dm   Am      F   Am   Em  Dm  C  Em   Am       C Em Am
e|-10------8---10-|-12------13--12-|-12--10--8---7--|-5-------8-7--5-|
B|-10------8---10-|-13------13--13-|-12--10--8---8--|-5-------8-8--5-|
G|-10------9---10-|-14------14--14-|-12--10--9---9--|-5-------9-9--5-|
D|----------------|----------------|----------------|----------------|
A|----------------|----------------|----------------|----------------|
E|----------------|----------------|----------------|----------------|

   Dm      C   Dm   Am  F   G   Am   Em  Dm  C  Em   Am7
e|-10------8---10-|-12--13--15--17-|-12--10--8---7--|-5--------------||
B|-10------8---10-|-13--13--15--17-|-12--10--8---8--|-5--------------||
G|-10------9---10-|-14--14--12--17-|-12--10—-9---9--|-5--------------||
D|----------------|----------------|----------------|-5--------------||
A|----------------|----------------|----------------|-7--------------||
E|----------------|----------------|----------------|-5--------------||


Back to stop and start all over again
Suggest correction
Give kudos to tab author, rate the tab!
1 2 3 4 5
comments
print report bad tab
guest
You may want to rate the tab now too:
select rating
Wanna post a correction for this tab? Suggest correction