Oops, an error
Loading. Please wait.

Hark The Herald Angels Sing Tab

version 6
version 6

Interactive

39,769 views 1 this week
16 commentsread comments
1 2 3 4 5
x 21
add to favorites
launch autoscroll
font size
0
reset
how to read this tab
guitar tuner
Autoscroll
slow
fast
+/-
esc
set tempo
stop
Help us to improve Ultimate-Guitar.com Take our survey!
×
Author
Tuning
D A D G B E
-----------------------------------------------------------------------------
                             Hark The Herald Angels Sing - Christmas
-----------------------------------------------------------------------------
Tabbed by: Chris Titus
Email: Eaglestalon101@yahoo.com

Tuning: Drop D (can be played in standard)

This tab has been corrected and revised. The previous version was much more basic.  
I kept the essence of it's easiness for anyone still learning the basics (what may be easy
to me would be difficult for someone else). This is basic for finger picking as well and makes 
an easy practice.

If you just started learning and playing, don't let this intimidate you:  Just play the first
note of each chord then

e|-----------2-2-0--5-5-5--3-2-0h2p0-2-|----------2-2-0--5-0-0------------------|
B|---3-3-2-3---------------------------|--3-3-2-3--------------3-2-0h2p0--------|
G|-2-----------------------------------|2--------------------------------2------|
D|-0---------0------0--------0---------|0---------0------0----------------------|
A|-------------------------------------|----------------------------------------|
D|-------------------------------------|---------------------------------0------|

e|-5-5-5---3-2-2-0--5-5-5---3-2-2-0|
B|-------3----------------3--------|
G|-2----------------2--------------|
D|-0-----0----------0--------------|
A|------------------------1--------|
D|---------------------------------|

e|-7--7-7-5-3-2h3p2-3--0-2h3-3h5-----0----|
B|-0--0-0-0-3-------3------------3-3---3--|
G|-0--0-0-0-0-------0---------------------|
D|-0--0-0-0-2-------2------------------0--|
A|-x--x-x-5-3-------3---------------------|
D|-5--5-5---------------------------------|  







| /  slide up
| \  slide down
| h  hammer-on
| p  pull-off
| ~  vibrato
| +  harmonic
| x  Mute note
=============================================================================
Suggest correction
comments
print report bad tab
16 comments total. Showing first comments.
+3 reply
gunsNroses140 31 Oct 04, 2006 04:03 PM

e|-7-7-7-5-3-2-3--0-2-3-5-0-0-2-|
B|-----------------------------3|
G|------------------------------|
D|------------------------------|
A|------------------------------|
E|------------------------------|

Dude this part is wrong. It should be this:

e|-7-7-7-5-3-2-3--0h2-3-5-----0-|
B|-----------------------3--3--3|
G|------------------------------|
D|------------------------------|
A|------------------------------|
E|------------------------------|

I put the hammer-on because it sounds good. Everything but the last part in your tab is all good.

+3 reply
gunsNroses140 31 Oct 04, 2006 04:04 PM

Oh man I messd up, the hammer-on should be between the 2 and 3, like this:

e|-7-7-7-5-3-2-3--0-2-3-5-----0-|
B|-----------------------3--3--3|
G|------------------------------|
D|------------------------------|
A|------------------------------|
E|------------------------------|

+1 reply
joeskolnik 10 Dec 01, 2006 10:54 PM

its very good

guest
You may want to rate the tab now too:
select rating
Wanna post a correction for this tab? Suggest correction